  0
SECTION
  2
HEADER
  9
$ACADVER
  1
AC1015
  9
$ACADMAINTVER
 70
     6
  9
$DWGCODEPAGE
  3
ANSI_1254
  9
$INSBASE
 10
0.0
 20
0.0
 30
0.0
  9
$EXTMIN
 10
0.0
 20
0.0
 30
0.0
  9
$EXTMAX
 10
279.4
 20
215.9
 30
0.0
  9
$LIMMIN
 10
0.0
 20
0.0
  9
$LIMMAX
 10
279.4
 20
215.9
  9
$ORTHOMODE
 70
     0
  9
$REGENMODE
 70
     1
  9
$FILLMODE
 70
     1
  9
$QTEXTMODE
 70
     0
  9
$MIRRTEXT
 70
     1
  9
$LTSCALE
 40
1.0
  9
$ATTMODE
 70
     1
  9
$TEXTSIZE
 40
3.5
  9
$TRACEWID
 40
1.0
  9
$TEXTSTYLE
  7
Standard
  9
$CLAYER
  8
0
  9
$CELTYPE
  6
ByLayer
  9
$CECOLOR
 62
   256
  9
$CELTSCALE
 40
1.0
  9
$DISPSILH
 70
     0
  9
$DIMSCALE
 40
1.0
  9
$DIMASZ
 40
3.5
  9
$DIMEXO
 40
1.0
  9
$DIMDLI
 40
3.75
  9
$DIMRND
 40
0.0
  9
$DIMDLE
 40
0.0
  9
$DIMEXE
 40
1.0
  9
$DIMTP
 40
0.0
  9
$DIMTM
 40
0.0
  9
$DIMTXT
 40
3.5
  9
$DIMCEN
 40
2.5
  9
$DIMTSZ
 40
0.0
  9
$DIMTOL
 70
     0
  9
$DIMLIM
 70
     0
  9
$DIMTIH
 70
     1
  9
$DIMTOH
 70
     1
  9
$DIMSE1
 70
     0
  9
$DIMSE2
 70
     0
  9
$DIMTAD
 70
     1
  9
$DIMZIN
 70
     0
  9
$DIMBLK
  1

  9
$DIMASO
 70
     1
  9
$DIMSHO
 70
     1
  9
$DIMPOST
  1

  9
$DIMAPOST
  1

  9
$DIMALT
 70
     0
  9
$DIMALTD
 70
     3
  9
$DIMALTF
 40
0.0393700787
  9
$DIMLFAC
 40
1.0
  9
$DIMTOFL
 70
     1
  9
$DIMTVP
 40
0.0
  9
$DIMTIX
 70
     0
  9
$DIMSOXD
 70
     0
  9
$DIMSAH
 70
     0
  9
$DIMBLK1
  1

  9
$DIMBLK2
  1

  9
$DIMSTYLE
  2
ISO-25
  9
$DIMCLRD
 70
     0
  9
$DIMCLRE
 70
     0
  9
$DIMCLRT
 70
     0
  9
$DIMTFAC
 40
1.0
  9
$DIMGAP
 40
1.524
  9
$DIMJUST
 70
     0
  9
$DIMSD1
 70
     0
  9
$DIMSD2
 70
     0
  9
$DIMTOLJ
 70
     0
  9
$DIMTZIN
 70
     0
  9
$DIMALTZ
 70
     0
  9
$DIMALTTZ
 70
     0
  9
$DIMUPT
 70
     0
  9
$DIMDEC
 70
     2
  9
$DIMTDEC
 70
     2
  9
$DIMALTU
 70
     2
  9
$DIMALTTD
 70
     3
  9
$DIMTXSTY
  7
Standard
  9
$DIMAUNIT
 70
     0
  9
$DIMADEC
 70
     2
  9
$DIMALTRND
 40
0.0
  9
$DIMAZIN
 70
     0
  9
$DIMDSEP
 70
    44
  9
$DIMATFIT
 70
     3
  9
$DIMFRAC
 70
     0
  9
$DIMLDRBLK
  1

  9
$DIMLUNIT
 70
     2
  9
$DIMLWD
 70
    -2
  9
$DIMLWE
 70
    -2
  9
$DIMTMOVE
 70
     0
  9
$LUNITS
 70
     2
  9
$LUPREC
 70
     2
  9
$SKETCHINC
 40
1.0
  9
$FILLETRAD
 40
10.0
  9
$AUNITS
 70
     0
  9
$AUPREC
 70
     2
  9
$MENU
  1
.
  9
$ELEVATION
 40
0.0
  9
$PELEVATION
 40
0.0
  9
$THICKNESS
 40
0.0
  9
$LIMCHECK
 70
     0
  9
$CHAMFERA
 40
0.0
  9
$CHAMFERB
 40
0.0
  9
$CHAMFERC
 40
0.0
  9
$CHAMFERD
 40
0.0
  9
$SKPOLY
 70
     0
  9
$TDCREATE
 40
2459741.606076574
  9
$TDUCREATE
 40
2459741.481076574
  9
$TDUPDATE
 40
2459741.606076759
  9
$TDUUPDATE
 40
2459741.481076759
  9
$TDINDWG
 40
0.0000000116
  9
$TDUSRTIMER
 40
0.0000000116
  9
$USRTIMER
 70
     1
  9
$ANGBASE
 50
0.0
  9
$ANGDIR
 70
     0
  9
$PDMODE
 70
     0
  9
$PDSIZE
 40
-1.0
  9
$PLINEWID
 40
0.0
  9
$SPLFRAME
 70
     0
  9
$SPLINETYPE
 70
     6
  9
$SPLINESEGS
 70
     8
  9
$HANDSEED
  5
102
  9
$SURFTAB1
 70
     6
  9
$SURFTAB2
 70
     6
  9
$SURFTYPE
 70
     6
  9
$SURFU
 70
     6
  9
$SURFV
 70
     6
  9
$UCSBASE
  2

  9
$UCSNAME
  2

  9
$UCSORG
 10
0.0
 20
0.0
 30
0.0
  9
$UCSXDIR
 10
1.0
 20
0.0
 30
0.0
  9
$UCSYDIR
 10
0.0
 20
1.0
 30
0.0
  9
$UCSORTHOREF
  2

  9
$UCSORTHOVIEW
 70
     0
  9
$UCSORGTOP
 10
0.0
 20
0.0
 30
0.0
  9
$UCSORGBOTTOM
 10
0.0
 20
0.0
 30
0.0
  9
$UCSORGLEFT
 10
0.0
 20
0.0
 30
0.0
  9
$UCSORGRIGHT
 10
0.0
 20
0.0
 30
0.0
  9
$UCSORGFRONT
 10
0.0
 20
0.0
 30
0.0
  9
$UCSORGBACK
 10
0.0
 20
0.0
 30
0.0
  9
$PUCSBASE
  2

  9
$PUCSNAME
  2

  9
$PUCSORG
 10
0.0
 20
0.0
 30
0.0
  9
$PUCSXDIR
 10
1.0
 20
0.0
 30
0.0
  9
$PUCSYDIR
 10
0.0
 20
1.0
 30
0.0
  9
$PUCSORTHOREF
  2

  9
$PUCSORTHOVIEW
 70
     0
  9
$PUCSORGTOP
 10
0.0
 20
0.0
 30
0.0
  9
$PUCSORGBOTTOM
 10
0.0
 20
0.0
 30
0.0
  9
$PUCSORGLEFT
 10
0.0
 20
0.0
 30
0.0
  9
$PUCSORGRIGHT
 10
0.0
 20
0.0
 30
0.0
  9
$PUCSORGFRONT
 10
0.0
 20
0.0
 30
0.0
  9
$PUCSORGBACK
 10
0.0
 20
0.0
 30
0.0
  9
$USERI1
 70
     0
  9
$USERI2
 70
     0
  9
$USERI3
 70
     0
  9
$USERI4
 70
     0
  9
$USERI5
 70
     0
  9
$USERR1
 40
0.0
  9
$USERR2
 40
0.0
  9
$USERR3
 40
0.0
  9
$USERR4
 40
0.0
  9
$USERR5
 40
0.0
  9
$WORLDVIEW
 70
     1
  9
$SHADEDGE
 70
     3
  9
$SHADEDIF
 70
    70
  9
$TILEMODE
 70
     1
  9
$MAXACTVP
 70
    64
  9
$PINSBASE
 10
0.0
 20
0.0
 30
0.0
  9
$PLIMCHECK
 70
     0
  9
$PEXTMIN
 10
1.0000000000E+20
 20
1.0000000000E+20
 30
1.0000000000E+20
  9
$PEXTMAX
 10
-1.0000000000E+20
 20
-1.0000000000E+20
 30
-1.0000000000E+20
  9
$PLIMMIN
 10
0.0
 20
0.0
  9
$PLIMMAX
 10
420.0
 20
297.0
  9
$UNITMODE
 70
     0
  9
$VISRETAIN
 70
     1
  9
$PLINEGEN
 70
     0
  9
$PSLTSCALE
 70
     1
  9
$TREEDEPTH
 70
  3020
  9
$CMLSTYLE
  2
Standard
  9
$CMLJUST
 70
     0
  9
$CMLSCALE
 40
20.0
  9
$PROXYGRAPHICS
 70
     1
  9
$MEASUREMENT
 70
     1
  9
$CELWEIGHT
370
    -1
  9
$ENDCAPS
280
     0
  9
$JOINSTYLE
280
     0
  9
$LWDISPLAY
290
     1
  9
$INSUNITS
 70
     4
  9
$HYPERLINKBASE
  1

  9
$STYLESHEET
  1

  9
$XEDIT
290
     1
  9
$CEPSNTYPE
380
     0
  9
$PSTYLEMODE
290
     1
  9
$FINGERPRINTGUID
  2
{7321d5b5-0646-4747-a02d-62dee92c981d}
  9
$VERSIONGUID
  2
{FAEB1C32-E019-11D5-929B-00C0DF256EC4}
  9
$EXTNAMES
290
     1
  9
$PSVPSCALE
 40
0.0
  9
$OLESTARTUP
290
     0
  0
ENDSEC
  0
SECTION
  2
CLASSES
  0
CLASS
  1
ACDBDICTIONARYWDFLT
  2
AcDbDictionaryWithDefault
  3
ObjectDBX Classes
 90
        0
280
     0
281
     0
  0
CLASS
  1
VISUALSTYLE
  2
AcDbVisualStyle
  3
ObjectDBX Classes
 90
     4095
280
     0
281
     0
  0
CLASS
  1
MATERIAL
  2
AcDbMaterial
  3
ObjectDBX Classes
 90
     1153
280
     0
281
     0
  0
CLASS
  1
SCALE
  2
AcDbScale
  3
ObjectDBX Classes
 90
     1153
280
     0
281
     0
  0
CLASS
  1
TABLESTYLE
  2
AcDbTableStyle
  3
ObjectDBX Classes
 90
     4095
280
     0
281
     0
  0
CLASS
  1
MLEADERSTYLE
  2
AcDbMLeaderStyle
  3
ACDB_MLEADERSTYLE_CLASS
 90
     4095
280
     0
281
     0
  0
CLASS
  1
SUN
  2
AcDbSun
  3
SCENEOE
 90
     1153
280
     0
281
     0
  0
CLASS
  1
ACDBPLACEHOLDER
  2
AcDbPlaceHolder
  3
ObjectDBX Classes
 90
        0
280
     0
281
     0
  0
CLASS
  1
LAYOUT
  2
AcDbLayout
  3
ObjectDBX Classes
 90
        0
280
     0
281
     0
  0
ENDSEC
  0
SECTION
  2
TABLES
  0
TABLE
  2
VPORT
  5
8
330
0
100
AcDbSymbolTable
 70
     1
  0
VPORT
  5
29
330
8
100
AcDbSymbolTableRecord
100
AcDbViewportTableRecord
  2
*Active
 70
     0
 10
0.0
 20
0.0
 11
1.0
 21
1.0
 12
139.7
 22
107.95
 13
0.0
 23
0.0
 14
10.0
 24
10.0
 15
10.0
 25
10.0
 16
0.0
 26
0.0
 36
1.0
 17
0.0
 27
0.0
 37
0.0
 40
215.9
 41
1.2941176471
 42
50.0
 43
0.0
 44
0.0
 50
0.0
 51
0.0
 71
     0
 72
  2000
 73
     1
 74
     3
 75
     0
 76
     0
 77
     0
 78
     0
281
     0
 65
     1
110
0.0
120
0.0
130
0.0
111
1.0
121
0.0
131
0.0
112
0.0
122
1.0
132
0.0
 79
     0
146
0.0
  0
ENDTAB
  0
TABLE
  2
LTYPE
  5
5
330
0
100
AcDbSymbolTable
 70
     6
  0
LTYPE
  5
14
330
5
100
AcDbSymbolTableRecord
100
AcDbLinetypeTableRecord
  2
ByBlock
 70
     0
  3

 72
    65
 73
     0
 40
0.0
  0
LTYPE
  5
15
330
5
100
AcDbSymbolTableRecord
100
AcDbLinetypeTableRecord
  2
ByLayer
 70
     0
  3

 72
    65
 73
     0
 40
0.0
  0
LTYPE
  5
16
330
5
100
AcDbSymbolTableRecord
100
AcDbLinetypeTableRecord
  2
Continuous
 70
     0
  3
Solid line
 72
    65
 73
     0
 40
0.0
  0
LTYPE
  5
6E
330
5
100
AcDbSymbolTableRecord
100
AcDbLinetypeTableRecord
  2
HIDDEN
 70
     0
  3
Hidden __ __ __ __ __ __ __ __ __ __ __ __ __ __
 72
    65
 73
     2
 40
1.905
 49
1.27
 74
     0
 49
-0.635
 74
     0
  0
LTYPE
  5
6F
330
5
100
AcDbSymbolTableRecord
100
AcDbLinetypeTableRecord
  2
PHANTOM
 70
     0
  3
Phantom ______  __  __  ______  __  __  ______
 72
    65
 73
     6
 40
12.7
 49
6.35
 74
     0
 49
-1.27
 74
     0
 49
1.27
 74
     0
 49
-1.27
 74
     0
 49
1.27
 74
     0
 49
-1.27
 74
     0
  0
LTYPE
  5
70
330
5
100
AcDbSymbolTableRecord
100
AcDbLinetypeTableRecord
  2
CENTER
 70
     0
  3
Center ____ _ ____ _ ____ _ ____ _ ____ _ ____
 72
    65
 73
     4
 40
10.16
 49
6.35
 74
     0
 49
-1.27
 74
     0
 49
1.27
 74
     0
 49
-1.27
 74
     0
  0
LTYPE
  5
71
330
5
100
AcDbSymbolTableRecord
100
AcDbLinetypeTableRecord
  2
CENTERX2
 70
     0
  3
Center (2x) ________  __  ________  __  _____
 72
    65
 73
     4
 40
20.32
 49
12.7
 74
     0
 49
-2.54
 74
     0
 49
2.54
 74
     0
 49
-2.54
 74
     0
  0
LTYPE
  5
72
330
5
100
AcDbSymbolTableRecord
100
AcDbLinetypeTableRecord
  2
DOT2
 70
     0
  3
Dot (.5x) ........................................
 72
    65
 73
     2
 40
0.635
 49
0.0
 74
     0
 49
-0.635
 74
     0
  0
ENDTAB
  0
TABLE
  2
LAYER
  5
2
330
0
100
AcDbSymbolTable
 70
    17
  0
LAYER
  5
10
330
2
100
AcDbSymbolTableRecord
100
AcDbLayerTableRecord
  2
0
 70
     0
 62
     7
  6
Continuous
370
    -3
390
F
  0
LAYER
  5
73
330
2
100
AcDbSymbolTableRecord
100
AcDbLayerTableRecord
  2
FORMAT
 70
     0
 62
     7
  6
Continuous
370
    -3
390
F
  0
LAYER
  5
74
330
2
100
AcDbSymbolTableRecord
100
AcDbLayerTableRecord
  2
YARDIMCI_GEOMETRI
 70
     0
 62
    -6
  6
Continuous
290
     0
370
    -3
390
F
  0
LAYER
  5
75
330
2
100
AcDbSymbolTableRecord
100
AcDbLayerTableRecord
  2
SAYFA_CERCEVESI
 70
     0
 62
     7
  6
Continuous
370
    25
390
F
  0
LAYER
  5
76
330
2
100
AcDbSymbolTableRecord
100
AcDbLayerTableRecord
  2
ANTET
 70
     0
 62
     7
  6
Continuous
370
    -3
390
F
  0
LAYER
  5
77
330
2
100
AcDbSymbolTableRecord
100
AcDbLayerTableRecord
  2
OLCU
 70
     0
 62
   150
  6
Continuous
370
    -3
390
F
  0
LAYER
  5
78
330
2
100
AcDbSymbolTableRecord
100
AcDbLayerTableRecord
  2
METIN
 70
     0
 62
    96
  6
Continuous
370
    -3
390
F
  0
LAYER
  5
79
330
2
100
AcDbSymbolTableRecord
100
AcDbLayerTableRecord
  2
BALON
 70
     0
 62
     5
  6
Continuous
370
    -3
390
F
  0
LAYER
  5
7A
330
2
100
AcDbSymbolTableRecord
100
AcDbLayerTableRecord
  2
VURGU
 70
     0
 62
     7
  6
Continuous
370
    -3
390
F
  0
LAYER
  5
7B
330
2
100
AcDbSymbolTableRecord
100
AcDbLayerTableRecord
  2
SILIK
 70
     0
 62
     7
  6
Continuous
370
    -3
390
F
  0
LAYER
  5
7C
330
2
100
AcDbSymbolTableRecord
100
AcDbLayerTableRecord
  2
MODEL
 70
     0
 62
     7
  6
Continuous
370
    -3
390
F
  0
LAYER
  5
7D
330
2
100
AcDbSymbolTableRecord
100
AcDbLayerTableRecord
  2
DETAYLANDıRMA
 70
     0
 62
   190
  6
Continuous
370
    -3
390
F
  0
LAYER
  5
7E
330
2
100
AcDbSymbolTableRecord
100
AcDbLayerTableRecord
  2
TOLERANS
 70
     0
 62
   230
  6
Continuous
370
    -3
390
F
  0
LAYER
  5
7F
330
2
100
AcDbSymbolTableRecord
100
AcDbLayerTableRecord
  2
MERKEZ_CIZGILERI
 70
     0
 62
    30
  6
Continuous
370
    -3
390
F
  0
LAYER
  5
80
330
2
100
AcDbSymbolTableRecord
100
AcDbLayerTableRecord
  2
KESIT-DETAY_CIZGILERI
 70
     0
 62
     7
  6
Continuous
370
    -3
390
F
  0
LAYER
  5
81
330
2
100
AcDbSymbolTableRecord
100
AcDbLayerTableRecord
  2
\U+041E\U+0421\U+0415\U+0412\U+042B\U+0415
 70
     0
 62
     7
  6
Continuous
370
    -3
390
F
  0
LAYER
  5
82
330
2
100
AcDbSymbolTableRecord
100
AcDbLayerTableRecord
  2
\U+0412\U+041E\U+0414\U+042F\U+041D\U+042B\U+0415_\U+0417\U+041D\U+0410\U+041A\U+0418
 70
     0
 62
    11
  6
Continuous
370
    -3
390
F
  0
ENDTAB
  0
TABLE
  2
STYLE
  5
3
330
0
100
AcDbSymbolTable
 70
     1
  0
STYLE
  5
11
330
3
100
AcDbSymbolTableRecord
100
AcDbTextStyleTableRecord
  2
Standard
 70
     0
 40
0.0
 41
1.0
 50
0.0
 71
     0
 42
3.5
  3
txt
  4

  0
ENDTAB
  0
TABLE
  2
VIEW
  5
6
330
0
100
AcDbSymbolTable
 70
     0
  0
ENDTAB
  0
TABLE
  2
UCS
  5
7
330
0
100
AcDbSymbolTable
 70
     0
  0
ENDTAB
  0
TABLE
  2
APPID
  5
9
330
0
100
AcDbSymbolTable
 70
     1
  0
APPID
  5
12
330
9
100
AcDbSymbolTableRecord
100
AcDbRegAppTableRecord
  2
ACAD
 70
     0
  0
ENDTAB
  0
TABLE
  2
DIMSTYLE
  5
A
330
0
100
AcDbSymbolTable
 70
     1
100
AcDbDimStyleTable
  0
DIMSTYLE
105
27
330
A
100
AcDbSymbolTableRecord
100
AcDbDimStyleTableRecord
  2
ISO-25
 70
     0
 41
2.5
 42
0.625
 43
3.75
 44
1.25
 73
     0
 74
     0
 77
     1
 78
     8
140
2.5
141
2.5
143
0.0393700787
147
0.625
171
     3
172
     1
178
     0
271
     2
272
     2
274
     3
278
    44
283
     0
284
     8
340
11
  0
ENDTAB
  0
TABLE
  2
BLOCK_RECORD
  5
1
330
0
100
AcDbSymbolTable
 70
     5
  0
BLOCK_RECORD
  5
1F
330
1
100
AcDbSymbolTableRecord
100
AcDbBlockTableRecord
  2
*Model_Space
340
22
  0
BLOCK_RECORD
  5
1B
330
1
100
AcDbSymbolTableRecord
100
AcDbBlockTableRecord
  2
*Paper_Space
340
1E
  0
BLOCK_RECORD
  5
23
330
1
100
AcDbSymbolTableRecord
100
AcDbBlockTableRecord
  2
*Paper_Space0
340
26
  0
BLOCK_RECORD
  5
8B
330
1
100
AcDbSymbolTableRecord
100
AcDbBlockTableRecord
  2
SW_CENTERMARKSYMBOL_0
340
0
102
{BLKREFS
331
96
102
}
  0
BLOCK_RECORD
  5
A9
330
1
100
AcDbSymbolTableRecord
100
AcDbBlockTableRecord
  2
SW_CENTERMARKSYMBOL_1
340
0
102
{BLKREFS
331
B4
102
}
  0
BLOCK_RECORD
  5
D9
330
1
100
AcDbSymbolTableRecord
100
AcDbBlockTableRecord
  2
SW_CENTERMARKSYMBOL_2
340
0
102
{BLKREFS
331
E4
102
}
  0
BLOCK_RECORD
  5
E5
330
1
100
AcDbSymbolTableRecord
100
AcDbBlockTableRecord
  2
SW_CENTERMARKSYMBOL_3
340
0
102
{BLKREFS
331
F0
102
}
  0
ENDTAB
  0
ENDSEC
  0
SECTION
  2
BLOCKS
  0
BLOCK
  5
20
330
1F
100
AcDbEntity
  8
0
100
AcDbBlockBegin
  2
*Model_Space
 70
     0
 10
0.0
 20
0.0
 30
0.0
  3
*Model_Space
  1

  0
ENDBLK
  5
21
330
1F
100
AcDbEntity
  8
0
100
AcDbBlockEnd
  0
BLOCK
  5
1C
330
1B
100
AcDbEntity
 67
     1
  8
0
100
AcDbBlockBegin
  2
*Paper_Space
 70
     0
 10
0.0
 20
0.0
 30
0.0
  3
*Paper_Space
  1

  0
ENDBLK
  5
1D
330
1B
100
AcDbEntity
 67
     1
  8
0
100
AcDbBlockEnd
  0
BLOCK
  5
24
330
23
100
AcDbEntity
  8
0
100
AcDbBlockBegin
  2
*Paper_Space0
 70
     0
 10
0.0
 20
0.0
 30
0.0
  3
*Paper_Space0
  1

  0
ENDBLK
  5
25
330
23
100
AcDbEntity
  8
0
100
AcDbBlockEnd
  0
BLOCK
  5
8C
330
8B
100
AcDbEntity
  8
0
100
AcDbBlockBegin
  2
SW_CENTERMARKSYMBOL_0
 70
     0
 10
0.0
 20
0.0
 30
0.0
  3
SW_CENTERMARKSYMBOL_0
  1

  0
LINE
  5
8E
330
8B
100
AcDbEntity
  8
FORMAT
 62
     0
100
AcDbLine
 10
0.0
 20
0.0
 30
0.0
 11
0.0
 21
2.5
 31
0.0
  0
LINE
  5
8F
330
8B
100
AcDbEntity
  8
FORMAT
 62
     0
100
AcDbLine
 10
0.0
 20
0.0
 30
0.0
 11
-2.5
 21
0.0
 31
0.0
  0
LINE
  5
90
330
8B
100
AcDbEntity
  8
FORMAT
 62
     0
100
AcDbLine
 10
0.0
 20
0.0
 30
0.0
 11
0.0
 21
-2.5
 31
0.0
  0
LINE
  5
91
330
8B
100
AcDbEntity
  8
FORMAT
 62
     0
100
AcDbLine
 10
0.0
 20
0.0
 30
0.0
 11
2.5
 21
0.0
 31
0.0
  0
LINE
  5
92
330
8B
100
AcDbEntity
  8
FORMAT
 62
     0
100
AcDbLine
 10
0.0
 20
5.0
 30
0.0
 11
0.0
 21
42.5
 31
0.0
  0
LINE
  5
93
330
8B
100
AcDbEntity
  8
FORMAT
 62
     0
100
AcDbLine
 10
-5.0
 20
0.0
 30
0.0
 11
-42.5
 21
0.0
 31
0.0
  0
LINE
  5
94
330
8B
100
AcDbEntity
  8
FORMAT
 62
     0
100
AcDbLine
 10
0.0
 20
-5.0
 30
0.0
 11
0.0
 21
-42.5
 31
0.0
  0
LINE
  5
95
330
8B
100
AcDbEntity
  8
FORMAT
 62
     0
100
AcDbLine
 10
5.0
 20
0.0
 30
0.0
 11
42.5
 21
0.0
 31
0.0
  0
ENDBLK
  5
8D
330
8B
100
AcDbEntity
  8
0
100
AcDbBlockEnd
  0
BLOCK
  5
AA
330
A9
100
AcDbEntity
  8
0
100
AcDbBlockBegin
  2
SW_CENTERMARKSYMBOL_1
 70
     0
 10
0.0
 20
0.0
 30
0.0
  3
SW_CENTERMARKSYMBOL_1
  1

  0
LINE
  5
AC
330
A9
100
AcDbEntity
  8
FORMAT
 62
     0
100
AcDbLine
 10
0.0
 20
0.0
 30
0.0
 11
0.0
 21
2.5
 31
0.0
  0
LINE
  5
AD
330
A9
100
AcDbEntity
  8
FORMAT
 62
     0
100
AcDbLine
 10
0.0
 20
0.0
 30
0.0
 11
-2.5
 21
0.0
 31
0.0
  0
LINE
  5
AE
330
A9
100
AcDbEntity
  8
FORMAT
 62
     0
100
AcDbLine
 10
0.0
 20
0.0
 30
0.0
 11
0.0
 21
-2.5
 31
0.0
  0
LINE
  5
AF
330
A9
100
AcDbEntity
  8
FORMAT
 62
     0
100
AcDbLine
 10
0.0
 20
0.0
 30
0.0
 11
2.5
 21
0.0
 31
0.0
  0
LINE
  5
B0
330
A9
100
AcDbEntity
  8
FORMAT
 62
     0
100
AcDbLine
 10
0.0
 20
5.0
 30
0.0
 11
0.0
 21
22.5
 31
0.0
  0
LINE
  5
B1
330
A9
100
AcDbEntity
  8
FORMAT
 62
     0
100
AcDbLine
 10
-5.0
 20
0.0
 30
0.0
 11
-22.5
 21
0.0
 31
0.0
  0
LINE
  5
B2
330
A9
100
AcDbEntity
  8
FORMAT
 62
     0
100
AcDbLine
 10
0.0
 20
-5.0
 30
0.0
 11
0.0
 21
-22.5
 31
0.0
  0
LINE
  5
B3
330
A9
100
AcDbEntity
  8
FORMAT
 62
     0
100
AcDbLine
 10
5.0
 20
0.0
 30
0.0
 11
22.5
 21
0.0
 31
0.0
  0
ENDBLK
  5
AB
330
A9
100
AcDbEntity
  8
0
100
AcDbBlockEnd
  0
BLOCK
  5
DA
330
D9
100
AcDbEntity
  8
0
100
AcDbBlockBegin
  2
SW_CENTERMARKSYMBOL_2
 70
     0
 10
0.0
 20
0.0
 30
0.0
  3
SW_CENTERMARKSYMBOL_2
  1

  0
LINE
  5
DC
330
D9
100
AcDbEntity
  8
FORMAT
 62
     0
100
AcDbLine
 10
0.0
 20
0.0
 30
0.0
 11
0.0
 21
2.5
 31
0.0
  0
LINE
  5
DD
330
D9
100
AcDbEntity
  8
FORMAT
 62
     0
100
AcDbLine
 10
0.0
 20
0.0
 30
0.0
 11
-2.5
 21
0.0
 31
0.0
  0
LINE
  5
DE
330
D9
100
AcDbEntity
  8
FORMAT
 62
     0
100
AcDbLine
 10
0.0
 20
0.0
 30
0.0
 11
0.0
 21
-2.5
 31
0.0
  0
LINE
  5
DF
330
D9
100
AcDbEntity
  8
FORMAT
 62
     0
100
AcDbLine
 10
0.0
 20
0.0
 30
0.0
 11
2.5
 21
0.0
 31
0.0
  0
LINE
  5
E0
330
D9
100
AcDbEntity
  8
FORMAT
 62
     0
100
AcDbLine
 10
0.0
 20
5.0
 30
0.0
 11
0.0
 21
9.5
 31
0.0
  0
LINE
  5
E1
330
D9
100
AcDbEntity
  8
FORMAT
 62
     0
100
AcDbLine
 10
-5.0
 20
0.0
 30
0.0
 11
-9.5
 21
0.0
 31
0.0
  0
LINE
  5
E2
330
D9
100
AcDbEntity
  8
FORMAT
 62
     0
100
AcDbLine
 10
0.0
 20
-5.0
 30
0.0
 11
0.0
 21
-9.5
 31
0.0
  0
LINE
  5
E3
330
D9
100
AcDbEntity
  8
FORMAT
 62
     0
100
AcDbLine
 10
5.0
 20
0.0
 30
0.0
 11
9.5
 21
0.0
 31
0.0
  0
ENDBLK
  5
DB
330
D9
100
AcDbEntity
  8
0
100
AcDbBlockEnd
  0
BLOCK
  5
E6
330
E5
100
AcDbEntity
  8
0
100
AcDbBlockBegin
  2
SW_CENTERMARKSYMBOL_3
 70
     0
 10
0.0
 20
0.0
 30
0.0
  3
SW_CENTERMARKSYMBOL_3
  1

  0
LINE
  5
E8
330
E5
100
AcDbEntity
  8
FORMAT
 62
     0
100
AcDbLine
 10
0.0
 20
0.0
 30
0.0
 11
0.0
 21
2.5
 31
0.0
  0
LINE
  5
E9
330
E5
100
AcDbEntity
  8
FORMAT
 62
     0
100
AcDbLine
 10
0.0
 20
0.0
 30
0.0
 11
-2.5
 21
0.0
 31
0.0
  0
LINE
  5
EA
330
E5
100
AcDbEntity
  8
FORMAT
 62
     0
100
AcDbLine
 10
0.0
 20
0.0
 30
0.0
 11
0.0
 21
-2.5
 31
0.0
  0
LINE
  5
EB
330
E5
100
AcDbEntity
  8
FORMAT
 62
     0
100
AcDbLine
 10
0.0
 20
0.0
 30
0.0
 11
2.5
 21
0.0
 31
0.0
  0
LINE
  5
EC
330
E5
100
AcDbEntity
  8
FORMAT
 62
     0
100
AcDbLine
 10
0.0
 20
5.0
 30
0.0
 11
0.0
 21
9.5
 31
0.0
  0
LINE
  5
ED
330
E5
100
AcDbEntity
  8
FORMAT
 62
     0
100
AcDbLine
 10
-5.0
 20
0.0
 30
0.0
 11
-9.5
 21
0.0
 31
0.0
  0
LINE
  5
EE
330
E5
100
AcDbEntity
  8
FORMAT
 62
     0
100
AcDbLine
 10
0.0
 20
-5.0
 30
0.0
 11
0.0
 21
-9.5
 31
0.0
  0
LINE
  5
EF
330
E5
100
AcDbEntity
  8
FORMAT
 62
     0
100
AcDbLine
 10
5.0
 20
0.0
 30
0.0
 11
9.5
 21
0.0
 31
0.0
  0
ENDBLK
  5
E7
330
E5
100
AcDbEntity
  8
0
100
AcDbBlockEnd
  0
ENDSEC
  0
SECTION
  2
ENTITIES
  0
LINE
  5
83
330
1F
100
AcDbEntity
  8
0
  6
Continuous
 62
     7
370
    25
100
AcDbLine
 10
126.1708209135
 20
139.1881478222
 30
0.0
 11
126.1708209135
 21
170.3012392902
 31
0.0
  0
LINE
  5
84
330
1F
100
AcDbEntity
  8
0
  6
Continuous
 62
     7
370
    25
100
AcDbLine
 10
112.1708209135
 20
170.3012392902
 30
0.0
 11
112.1708209135
 21
139.1852395583
 31
0.0
  0
LINE
  5
85
330
1F
100
AcDbEntity
  8
0
  6
Continuous
 62
     7
370
    25
100
AcDbLine
 10
153.8311434712
 20
79.8012392902
 30
0.0
 11
217.1708209135
 21
79.8012392902
 31
0.0
  0
LINE
  5
86
330
1F
100
AcDbEntity
  8
0
  6
Continuous
 62
     7
370
    25
100
AcDbLine
 10
217.1708209135
 20
119.8012392902
 30
0.0
 11
153.8269642069
 21
119.8012392902
 31
0.0
  0
CIRCLE
  5
87
330
1F
100
AcDbEntity
  8
0
  6
Continuous
 62
     7
370
    25
100
AcDbCircle
 10
119.1708209135
 20
99.8012392902
 30
0.0
 40
31.5
  0
CIRCLE
  5
88
330
1F
100
AcDbEntity
  8
0
  6
Continuous
 62
     7
370
    25
100
AcDbCircle
 10
119.1708209135
 20
99.8012392902
 30
0.0
 40
40.0
  0
LINE
  5
89
330
1F
100
AcDbEntity
  8
0
  6
Continuous
 62
     7
370
    25
100
AcDbLine
 10
126.1708209135
 20
170.3012392902
 30
0.0
 11
112.1708209135
 21
170.3012392902
 31
0.0
  0
LINE
  5
8A
330
1F
100
AcDbEntity
  8
0
  6
Continuous
 62
     7
370
    25
100
AcDbLine
 10
217.1708209135
 20
119.8012392902
 30
0.0
 11
217.1708209135
 21
79.8012392902
 31
0.0
  0
INSERT
  5
96
330
1F
100
AcDbEntity
  8
FORMAT
 62
     7
100
AcDbBlockReference
  2
SW_CENTERMARKSYMBOL_0
 10
119.1708209135
 20
99.8012392902
 30
0.0
  0
LINE
  5
97
330
1F
100
AcDbEntity
  8
0
  6
Continuous
 62
     7
370
    25
100
AcDbLine
 10
-150.9471581471
 20
134.6345726235
 30
0.0
 11
-151.9659930965
 21
134.6345726235
 31
0.0
  0
LINE
  5
98
330
1F
100
AcDbEntity
  8
0
  6
Continuous
 62
     7
370
    25
100
AcDbLine
 10
-2.9471581471
 20
134.6345726235
 30
0.0
 11
-136.9659930965
 21
134.6345726235
 31
0.0
  0
LINE
  5
99
330
1F
100
AcDbEntity
  8
0
  6
Continuous
 62
     7
370
    25
100
AcDbLine
 10
12.0340069035
 20
134.6345726235
 30
0.0
 11
11.0340069035
 21
134.6345726235
 31
0.0
  0
LINE
  5
9A
330
1F
100
AcDbEntity
  8
0
  6
Continuous
 62
     7
370
    25
100
AcDbLine
 10
-151.9659930965
 20
54.6345726235
 30
0.0
 11
12.0340069035
 21
54.6345726235
 31
0.0
  0
LINE
  5
9B
330
1F
100
AcDbEntity
  8
0
  6
Continuous
 62
     7
370
    25
100
AcDbLine
 10
11.0340069035
 20
134.6345726235
 30
0.0
 11
11.0340069035
 21
165.1345726235
 31
0.0
  0
LINE
  5
9C
330
1F
100
AcDbEntity
  8
0
  6
Continuous
 62
     7
370
    25
100
AcDbLine
 10
-2.9659930965
 20
165.1345726235
 30
0.0
 11
-2.9659930965
 21
134.6312898637
 31
0.0
  0
LINE
  5
9D
330
1F
100
AcDbEntity
  8
0
  6
Continuous
 62
     7
370
    25
100
AcDbLine
 10
-136.9659930965
 20
134.6345726235
 30
0.0
 11
-136.9659930965
 21
165.1345726235
 31
0.0
  0
LINE
  5
9E
330
1F
100
AcDbEntity
  8
0
  6
Continuous
 62
     7
370
    25
100
AcDbLine
 10
-150.9659930965
 20
165.1345726235
 30
0.0
 11
-150.9659930965
 21
134.6312898637
 31
0.0
  0
CIRCLE
  5
9F
330
1F
100
AcDbEntity
  8
0
  6
Continuous
 62
     7
370
    25
100
AcDbCircle
 10
-69.9659930965
 20
94.6345726235
 30
0.0
 40
16.3
  0
CIRCLE
  5
A0
330
1F
100
AcDbEntity
  8
0
  6
Continuous
 62
     7
370
    25
100
AcDbCircle
 10
-69.9659930965
 20
94.6345726235
 30
0.0
 40
20.0
  0
LINE
  5
A1
330
1F
100
AcDbEntity
  8
0
  6
Continuous
 62
     7
370
    25
100
AcDbLine
 10
-151.9659930965
 20
94.6345726235
 30
0.0
 11
-151.9659930965
 21
134.6345726235
 31
0.0
  0
LINE
  5
A2
330
1F
100
AcDbEntity
  8
0
  6
Continuous
 62
     7
370
    25
100
AcDbLine
 10
-151.9659930965
 20
54.6345726235
 30
0.0
 11
-151.9659930965
 21
94.6345726235
 31
0.0
  0
LINE
  5
A3
330
1F
100
AcDbEntity
  8
0
  6
Continuous
 62
     7
370
    25
100
AcDbLine
 10
12.0340069035
 20
94.6345726235
 30
0.0
 11
12.0340069035
 21
134.6345726235
 31
0.0
  0
LINE
  5
A4
330
1F
100
AcDbEntity
  8
0
  6
Continuous
 62
     7
370
    25
100
AcDbLine
 10
12.0340069035
 20
54.6345726235
 30
0.0
 11
12.0340069035
 21
94.6345726235
 31
0.0
  0
SPLINE
  5
A5
330
1F
100
AcDbEntity
  8
0
  6
Continuous
 62
     7
370
    25
100
AcDbSpline
210
0.0
220
0.0
230
1.0
 70
     8
 71
     3
 72
    26
 73
    22
 74
     0
 42
0.00000001
 43
0.00000001
 40
0.0
 40
0.0
 40
0.0
 40
0.0
 40
0.05237446859372
 40
0.1062818262333994
 40
0.1586523694408184
 40
0.2125152249020938
 40
0.2653744664375877
 40
0.3197450442193736
 40
0.3729395875070164
 40
0.4277066401178663
 40
0.4803558846474332
 40
0.5345675023679165
 40
0.586639390978617
 40
0.6402072654921822
 40
0.692569601904707
 40
0.7464103371621765
 40
0.7994741393026453
 40
0.854072288161584
 40
0.9071646812192989
 40
0.9618359470163516
 40
1.0
 40
1.0
 40
1.0
 40
1.0
 10
-136.9659930964717
 20
134.6345726235261
 30
0.0
 10
-136.9843766823171
 20
134.6313345919284
 30
0.0
 10
-137.0216819023763
 20
134.6247637584509
 30
0.0
 10
-137.3215575477632
 20
134.5732784321167
 30
0.0
 10
-137.7952280479782
 20
134.4965706051958
 30
0.0
 10
-138.4399008483513
 20
134.4009500230511
 30
0.0
 10
-139.2462824887941
 20
134.2959584705729
 30
0.0
 10
-140.1828670656679
 20
134.1944185571785
 30
0.0
 10
-141.239295057261
 20
134.1065251046506
 30
0.0
 10
-142.3641693724617
 20
134.0442124989316
 30
0.0
 10
-143.5424894792015
 20
134.0136875206359
 30
0.0
 10
-144.713997502458
 20
134.018628710523
 30
0.0
 10
-145.8699263067311
 20
134.0579688103299
 30
0.0
 10
-146.9593841743903
 20
134.1262203665314
 30
0.0
 10
-147.9761133545485
 20
134.2170857612741
 30
0.0
 10
-148.8783718066332
 20
134.3195818577669
 30
0.0
 10
-149.653950272108
 20
134.423934452133
 30
0.0
 10
-150.2676484801731
 20
134.5172024700812
 30
0.0
 10
-150.7004959207175
 20
134.588486187947
 30
0.0
 10
-150.9392136866723
 20
134.629868211538
 30
0.0
 10
-150.944843687044
 20
134.6308724888392
 30
0.0
 10
-150.9471581470503
 20
134.631285341325
 30
0.0
  0
SPLINE
  5
A6
330
1F
100
AcDbEntity
  8
0
  6
Continuous
 62
     7
370
    25
100
AcDbSpline
210
0.0
220
0.0
230
1.0
 70
     8
 71
     3
 72
    26
 73
    22
 74
     0
 42
0.00000001
 43
0.00000001
 40
0.0
 40
0.0
 40
0.0
 40
0.0
 40
0.05237446859372
 40
0.1062818262333993
 40
0.1586523694408183
 40
0.2125152249020935
 40
0.2653744664375874
 40
0.3197450442193733
 40
0.3729395875070162
 40
0.427706640117866
 40
0.4803558846474328
 40
0.5345675023679161
 40
0.5866393909786165
 40
0.6402072654921817
 40
0.6925696019047064
 40
0.746410337162176
 40
0.7994741393026448
 40
0.8540722881615833
 40
0.9071646812192984
 40
0.9618359470163511
 40
1.0
 40
1.0
 40
1.0
 40
1.0
 10
11.03400690352835
 20
134.6345726235261
 30
0.0
 10
11.01562331768291
 20
134.6313345919284
 30
0.0
 10
10.97831809762373
 20
134.6247637584509
 30
0.0
 10
10.67844245223679
 20
134.5732784321167
 30
0.0
 10
10.20477195202185
 20
134.4965706051958
 30
0.0
 10
9.56009915164878
 20
134.4009500230511
 30
0.0
 10
8.753717511205918
 20
134.2959584705729
 30
0.0
 10
7.817132934332117
 20
134.1944185571785
 30
0.0
 10
6.760704942739004
 20
134.1065251046506
 30
0.0
 10
5.635830627538377
 20
134.0442124989316
 30
0.0
 10
4.457510520798458
 20
134.0136875206358
 30
0.0
 10
3.286002497542046
 20
134.018628710523
 30
0.0
 10
2.130073693268966
 20
134.0579688103299
 30
0.0
 10
1.040615825609714
 20
134.1262203665314
 30
0.0
 10
0.0238866454515124
 20
134.2170857612741
 30
0.0
 10
-0.8783718066331936
 20
134.3195818577669
 30
0.0
 10
-1.653950272107949
 20
134.423934452133
 30
0.0
 10
-2.267648480173079
 20
134.5172024700812
 30
0.0
 10
-2.700495920717472
 20
134.588486187947
 30
0.0
 10
-2.939213686672243
 20
134.629868211538
 30
0.0
 10
-2.944843687044008
 20
134.6308724888392
 30
0.0
 10
-2.947158147050266
 20
134.631285341325
 30
0.0
  0
LINE
  5
A7
330
1F
100
AcDbEntity
  8
0
  6
Continuous
 62
     7
370
    25
100
AcDbLine
 10
11.0340069035
 20
165.1345726235
 30
0.0
 11
-2.9659930965
 21
165.1345726235
 31
0.0
  0
LINE
  5
A8
330
1F
100
AcDbEntity
  8
0
  6
Continuous
 62
     7
370
    25
100
AcDbLine
 10
-136.9659930965
 20
165.1345726235
 30
0.0
 11
-150.9659930965
 21
165.1345726235
 31
0.0
  0
INSERT
  5
B4
330
1F
100
AcDbEntity
  8
FORMAT
 62
     7
100
AcDbBlockReference
  2
SW_CENTERMARKSYMBOL_1
 10
-69.9659930965
 20
94.6345726235
 30
0.0
  0
LINE
  5
B5
330
1F
100
AcDbEntity
  8
0
  6
Continuous
 62
     7
370
    25
100
AcDbLine
 10
140.1708209135
 20
309.4751006003
 30
0.0
 11
140.1708209135
 21
371.4751006003
 31
0.0
  0
LINE
  5
B6
330
1F
100
AcDbEntity
  8
0
  6
Continuous
 62
     7
370
    25
100
AcDbLine
 10
140.1708209135
 20
207.4751006003
 30
0.0
 11
140.1708209135
 21
269.5421820105
 31
0.0
  0
LINE
  5
B7
330
1F
100
AcDbEntity
  8
0
  6
Continuous
 62
     7
370
    25
100
AcDbLine
 10
60.1708209135
 20
371.4751006003
 30
0.0
 11
60.1708209135
 21
207.4751006003
 31
0.0
  0
LINE
  5
B8
330
1F
100
AcDbEntity
  8
0
  6
Continuous
 62
     7
370
    25
100
AcDbLine
 10
140.1373375551
 20
269.4751006003
 30
0.0
 11
198.1708209135
 21
269.4751006003
 31
0.0
  0
LINE
  5
B9
330
1F
100
AcDbEntity
  8
0
  6
Continuous
 62
     7
370
    25
100
AcDbLine
 10
198.1708209135
 20
309.4751006003
 30
0.0
 11
140.1708209135
 21
309.4751006003
 31
0.0
  0
SPLINE
  5
BA
330
1F
100
AcDbEntity
  8
0
  6
Continuous
 62
     7
370
    25
100
AcDbSpline
210
0.0
220
0.0
230
1.0
 70
     8
 71
     3
 72
    30
 73
    26
 74
     0
 42
0.00000001
 43
0.00000001
 40
0.0
 40
0.0
 40
0.0
 40
0.0
 40
0.0486425062447523
 40
0.0987938174942536
 40
0.1474128050966883
 40
0.1972957441493622
 40
0.2488995565718453
 40
0.3017921798844536
 40
0.3571948590866624
 40
0.3858284446362175
 40
0.4144585799229684
 40
0.4663736158107248
 40
0.4933346730761147
 40
0.520295412990965
 40
0.5661991957447488
 40
0.6133868544918983
 40
0.6604938776028467
 40
0.7086832505298888
 40
0.7616994159245646
 40
0.8161124838323789
 40
0.8713673141446443
 40
0.8999742009906909
 40
0.9285786312566341
 40
0.9792271688438418
 40
1.0
 40
1.0
 40
1.0
 40
1.0
 10
140.1708209134615
 20
309.4751006002836
 30
0.0
 10
140.1472923032451
 20
309.4282523397882
 30
0.0
 10
140.0995052666988
 20
309.3331026681406
 30
0.0
 10
139.7242715182587
 20
308.5726855400559
 30
0.0
 10
139.161450546042
 20
307.3850602653326
 30
0.0
 10
138.4362974787705
 20
305.7590163846352
 30
0.0
 10
137.5971167318232
 20
303.6947955460983
 30
0.0
 10
136.7069486120947
 20
301.1839322981793
 30
0.0
 10
136.0041384881177
 20
298.7418637794221
 30
0.0
 10
135.5206785185283
 20
296.5814611188915
 30
0.0
 10
135.1316224351548
 20
294.4017068304077
 30
0.0
 10
134.8836138631446
 20
292.1519387579129
 30
0.0
 10
134.8005797234133
 20
289.9013824425857
 30
0.0
 10
134.8267222494886
 20
287.7731405636446
 30
0.0
 10
135.0304623189307
 20
285.2367010425437
 30
0.0
 10
135.4929338779447
 20
282.3951033009131
 30
0.0
 10
136.1370015785331
 20
279.695198000561
 30
0.0
 10
136.9205855355459
 20
277.1311307081196
 30
0.0
 10
137.7897234637555
 20
274.7567633068415
 30
0.0
 10
138.6590197657551
 20
272.6738015932578
 30
0.0
 10
139.2875608592429
 20
271.2983581319636
 30
0.0
 10
139.6893809670499
 20
270.4540118991144
 30
0.0
 10
139.9830104266174
 20
269.8511287880585
 30
0.0
 10
140.1751364544502
 20
269.4664205122914
 30
0.0
 10
140.1458484014316
 20
269.5251117304818
 30
0.0
 10
140.1373300015332
 20
269.5421820105292
 30
0.0
  0
LINE
  5
BB
330
1F
100
AcDbEntity
  8
0
  6
Continuous
 62
     7
370
    25
100
AcDbLine
 10
60.1708209135
 20
371.4751006003
 30
0.0
 11
140.1708209135
 21
371.4751006003
 31
0.0
  0
LINE
  5
BC
330
1F
100
AcDbEntity
  8
0
  6
Continuous
 62
     7
370
    25
100
AcDbLine
 10
60.1708209135
 20
207.4751006003
 30
0.0
 11
140.1708209135
 21
207.4751006003
 31
0.0
  0
LINE
  5
BD
330
1F
100
AcDbEntity
  8
0
  6
Continuous
 62
     7
370
    25
100
AcDbLine
 10
198.1708209135
 20
309.4751006003
 30
0.0
 11
198.1708209135
 21
269.4751006003
 31
0.0
  0
LINE
  5
BE
330
1F
100
AcDbEntity
  8
0
  6
Continuous
 62
     7
370
    25
100
AcDbLine
 10
282.2333528514
 20
54.6345726235
 30
0.0
 11
446.2333528514
 21
54.6345726235
 31
0.0
  0
LINE
  5
BF
330
1F
100
AcDbEntity
  8
0
  6
Continuous
 62
     7
370
    25
100
AcDbLine
 10
283.2333528514
 20
134.6345726235
 30
0.0
 11
282.2333528514
 21
134.6345726235
 31
0.0
  0
LINE
  5
C0
330
1F
100
AcDbEntity
  8
0
  6
Continuous
 62
     7
370
    25
100
AcDbLine
 10
431.2333528514
 20
134.6345726235
 30
0.0
 11
297.214517902
 21
134.6345726235
 31
0.0
  0
LINE
  5
C1
330
1F
100
AcDbEntity
  8
0
  6
Continuous
 62
     7
370
    25
100
AcDbLine
 10
446.2333528514
 20
134.6345726235
 30
0.0
 11
445.214517902
 21
134.6345726235
 31
0.0
  0
LINE
  5
C2
330
1F
100
AcDbEntity
  8
0
  6
Continuous
 62
     7
370
    25
100
AcDbLine
 10
297.2333528514
 20
134.6312898637
 30
0.0
 11
297.2333528514
 21
165.1345726235
 31
0.0
  0
LINE
  5
C3
330
1F
100
AcDbEntity
  8
0
  6
Continuous
 62
     7
370
    25
100
AcDbLine
 10
283.2333528514
 20
165.1345726235
 30
0.0
 11
283.2333528514
 21
134.6345726235
 31
0.0
  0
LINE
  5
C4
330
1F
100
AcDbEntity
  8
0
  6
Continuous
 62
     7
370
    25
100
AcDbLine
 10
445.2333528514
 20
134.6312898637
 30
0.0
 11
445.2333528514
 21
165.1345726235
 31
0.0
  0
LINE
  5
C5
330
1F
100
AcDbEntity
  8
0
  6
Continuous
 62
     7
370
    25
100
AcDbLine
 10
431.2333528514
 20
165.1345726235
 30
0.0
 11
431.2333528514
 21
134.6345726235
 31
0.0
  0
LINE
  5
C6
330
1F
100
AcDbEntity
  8
0
  6
Continuous
 62
     7
370
    25
100
AcDbLine
 10
446.2333528514
 20
134.6345726235
 30
0.0
 11
446.2333528514
 21
54.6345726235
 31
0.0
  0
LINE
  5
C7
330
1F
100
AcDbEntity
  8
0
  6
Continuous
 62
     7
370
    25
100
AcDbLine
 10
282.2333528514
 20
134.6345726235
 30
0.0
 11
282.2333528514
 21
54.6345726235
 31
0.0
  0
SPLINE
  5
C8
330
1F
100
AcDbEntity
  8
0
  6
Continuous
 62
     7
370
    25
100
AcDbSpline
210
0.0
220
0.0
230
1.0
 70
     8
 71
     3
 72
    26
 73
    22
 74
     0
 42
0.00000001
 43
0.00000001
 40
0.0
 40
0.0
 40
0.0
 40
0.0
 40
0.014248464427562
 40
0.0682047854705337
 40
0.1202918722527087
 40
0.1738623030885345
 40
0.2264594863351623
 40
0.2805475599452508
 40
0.3337266108351132
 40
0.3884598919559001
 40
0.4413831263968191
 40
0.4958835309922001
 40
0.5480923534488614
 40
0.6018209588757727
 40
0.6539787920249518
 40
0.7076114857205099
 40
0.760451040223532
 40
0.8147999241716329
 40
0.8680009186374211
 40
0.9227729532218939
 40
1.0
 40
1.0
 40
1.0
 40
1.0
 10
445.2145179020143
 20
134.631285341325
 30
0.0
 10
445.2200669215459
 20
134.6322536904239
 30
0.0
 10
445.2466290601292
 20
134.6368889999262
 30
0.0
 10
445.0983363632563
 20
134.6109127390665
 30
0.0
 10
444.7667393726066
 20
134.5548546432385
 30
0.0
 10
444.2444387594123
 20
134.4718993079052
 30
0.0
 10
443.5530173177243
 20
134.3725636684806
 30
0.0
 10
442.7139399159771
 20
134.2679219994292
 30
0.0
 10
441.736521524733
 20
134.1683700436563
 30
0.0
 10
440.6647943423185
 20
134.0870437724198
 30
0.0
 10
439.5136493658379
 20
134.0323482474074
 30
0.0
 10
438.3426064009993
 20
134.0115550890561
 30
0.0
 10
437.1632669694346
 20
134.0261671817306
 30
0.0
 10
436.0310153088656
 20
134.0736486337602
 30
0.0
 10
434.9516939922119
 20
134.1493280052244
 30
0.0
 10
433.9693835944733
 20
134.2438639781309
 30
0.0
 10
433.094078610243
 20
134.3485284348496
 30
0.0
 10
432.363773311975
 20
134.4506094630664
 30
0.0
 10
431.7964278570847
 20
134.5389106096307
 30
0.0
 10
431.3396749710898
 20
134.6156789821259
 30
0.0
 10
431.2725972009872
 20
134.6275988285169
 30
0.0
 10
431.2333528514356
 20
134.6345726235261
 30
0.0
  0
SPLINE
  5
C9
330
1F
100
AcDbEntity
  8
0
  6
Continuous
 62
     7
370
    25
100
AcDbSpline
210
0.0
220
0.0
230
1.0
 70
     8
 71
     3
 72
    26
 73
    22
 74
     0
 42
0.00000001
 43
0.00000001
 40
0.0
 40
0.0
 40
0.0
 40
0.0
 40
0.0142484644275613
 40
0.068204785470533
 40
0.120291872252708
 40
0.1738623030885338
 40
0.2264594863351615
 40
0.2805475599452501
 40
0.3337266108351126
 40
0.3884598919558995
 40
0.4413831263968185
 40
0.4958835309921996
 40
0.5480923534488609
 40
0.6018209588757722
 40
0.6539787920249513
 40
0.7076114857205104
 40
0.7604510402235316
 40
0.8147999241716327
 40
0.8680009186374209
 40
0.9227729532218939
 40
1.0
 40
1.0
 40
1.0
 40
1.0
 10
297.2145179020143
 20
134.631285341325
 30
0.0
 10
297.2200669215458
 20
134.6322536904239
 30
0.0
 10
297.2466290601292
 20
134.6368889999262
 30
0.0
 10
297.0983363632563
 20
134.6109127390665
 30
0.0
 10
296.7667393726065
 20
134.5548546432385
 30
0.0
 10
296.2444387594122
 20
134.4718993079051
 30
0.0
 10
295.5530173177243
 20
134.3725636684806
 30
0.0
 10
294.7139399159771
 20
134.2679219994292
 30
0.0
 10
293.736521524733
 20
134.1683700436563
 30
0.0
 10
292.6647943423185
 20
134.0870437724198
 30
0.0
 10
291.5136493658379
 20
134.0323482474074
 30
0.0
 10
290.3426064009993
 20
134.0115550890561
 30
0.0
 10
289.1632669694346
 20
134.0261671817306
 30
0.0
 10
288.0310153088656
 20
134.0736486337603
 30
0.0
 10
286.9516939922119
 20
134.1493280052244
 30
0.0
 10
285.9693835944732
 20
134.2438639781309
 30
0.0
 10
285.094078610243
 20
134.3485284348496
 30
0.0
 10
284.363773311975
 20
134.4506094630664
 30
0.0
 10
283.7964278570847
 20
134.5389106096307
 30
0.0
 10
283.3396749710898
 20
134.615678982126
 30
0.0
 10
283.2725972009873
 20
134.6275988285169
 30
0.0
 10
283.2333528514356
 20
134.6345726235261
 30
0.0
  0
LINE
  5
CA
330
1F
100
AcDbEntity
  8
0
  6
Continuous
 62
     7
370
    25
100
AcDbLine
 10
297.2333528514
 20
165.1345726235
 30
0.0
 11
283.2333528514
 21
165.1345726235
 31
0.0
  0
LINE
  5
CB
330
1F
100
AcDbEntity
  8
0
  6
Continuous
 62
     7
370
    25
100
AcDbLine
 10
445.2333528514
 20
165.1345726235
 30
0.0
 11
431.2333528514
 21
165.1345726235
 31
0.0
  0
LINE
  5
CC
330
1F
100
AcDbEntity
  8
0
  6
Continuous
 62
     7
370
    25
100
AcDbLine
 10
60.1708209135
 20
27.6075959675
 30
0.0
 11
60.1708209135
 21
-136.3924040325
 31
0.0
  0
LINE
  5
CD
330
1F
100
AcDbEntity
  8
0
  6
Continuous
 62
     7
370
    25
100
AcDbLine
 10
140.1708209135
 20
-34.4594854428
 30
0.0
 11
140.1708209135
 21
27.6075959675
 31
0.0
  0
LINE
  5
CE
330
1F
100
AcDbEntity
  8
0
  6
Continuous
 62
     7
370
    25
100
AcDbLine
 10
140.1708209135
 20
-136.3924040325
 30
0.0
 11
140.1708209135
 21
-74.3924040325
 31
0.0
  0
LINE
  5
CF
330
1F
100
AcDbEntity
  8
0
  6
Continuous
 62
     7
370
    25
100
AcDbLine
 10
140.1708209135
 20
-74.3924040325
 30
0.0
 11
198.1708209135
 21
-74.3924040325
 31
0.0
  0
LINE
  5
D0
330
1F
100
AcDbEntity
  8
0
  6
Continuous
 62
     7
370
    25
100
AcDbLine
 10
198.1708209135
 20
-34.3924040325
 30
0.0
 11
140.1708209135
 21
-34.3924040325
 31
0.0
  0
CIRCLE
  5
D1
330
1F
100
AcDbEntity
  8
0
  6
Continuous
 62
     7
370
    25
100
AcDbCircle
 10
100.1708209135
 20
19.6075959675
 30
0.0
 40
7.00000000000002
  0
CIRCLE
  5
D2
330
1F
100
AcDbEntity
  8
0
  6
Continuous
 62
     7
370
    25
100
AcDbCircle
 10
100.1708209135
 20
19.6075959675
 30
0.0
 40
5.000000000000004
  0
CIRCLE
  5
D3
330
1F
100
AcDbEntity
  8
0
  6
Continuous
 62
     7
370
    25
100
AcDbCircle
 10
100.1708209135
 20
-128.3924040325
 30
0.0
 40
4.999999999999986
  0
CIRCLE
  5
D4
330
1F
100
AcDbEntity
  8
0
  6
Continuous
 62
     7
370
    25
100
AcDbCircle
 10
100.1708209135
 20
-128.3924040325
 30
0.0
 40
7.000000000000014
  0
LWPOLYLINE
  5
D5
330
1F
100
AcDbEntity
  8
0
  6
Continuous
 62
     7
370
    25
100
AcDbPolyline
 90
       24
 70
   128
 43
0.0
 10
140.1373300015
 20
-34.4594854428
 10
140.1198752621
 20
-34.4944909924
 10
139.8627436131
 20
-35.0159046688
 10
139.3959637319
 20
-35.9909956862
 10
138.7636603301
 20
-37.3804301836
 10
138.0016060753
 20
-39.1881840275
 10
137.1294515205
 20
-41.5106193599
 10
136.263592082
 20
-44.2588888171
 10
135.5151047972
 20
-47.3768211447
 10
135.2146356105
 20
-49.0956481967
 10
134.9906363206
 20
-50.8682665512
 10
134.813632029
 20
-54.0397540819
 10
134.9366335479
 20
-57.3354854332
 10
135.2864638878
 20
-60.1463923452
 10
135.8361166657
 20
-62.8784703234
 10
136.5512036247
 20
-65.506910149
 10
137.3593711843
 20
-67.9197197769
 10
138.2450511201
 20
-70.1926257343
 10
139.0645365776
 20
-72.0763266224
 10
139.6889936833
 20
-73.4104475456
 10
139.9205813798
 20
-73.8872126971
 10
140.0796911174
 20
-74.2095158542
 10
140.1708209135
 20
-74.3924040325
 10
140.1708209135
 20
-74.3924040325
  0
LINE
  5
D6
330
1F
100
AcDbEntity
  8
0
  6
Continuous
 62
     7
370
    25
100
AcDbLine
 10
140.1708209135
 20
-136.3924040325
 30
0.0
 11
60.1708209135
 21
-136.3924040325
 31
0.0
  0
LINE
  5
D7
330
1F
100
AcDbEntity
  8
0
  6
Continuous
 62
     7
370
    25
100
AcDbLine
 10
140.1708209135
 20
27.6075959675
 30
0.0
 11
60.1708209135
 21
27.6075959675
 31
0.0
  0
LINE
  5
D8
330
1F
100
AcDbEntity
  8
0
  6
Continuous
 62
     7
370
    25
100
AcDbLine
 10
198.1708209135
 20
-34.3924040325
 30
0.0
 11
198.1708209135
 21
-74.3924040325
 31
0.0
  0
INSERT
  5
E4
330
1F
100
AcDbEntity
  8
FORMAT
 62
     7
100
AcDbBlockReference
  2
SW_CENTERMARKSYMBOL_2
 10
100.1708209135
 20
-128.3924040325
 30
0.0
  0
INSERT
  5
F0
330
1F
100
AcDbEntity
  8
FORMAT
 62
     7
100
AcDbBlockReference
  2
SW_CENTERMARKSYMBOL_3
 10
100.1708209135
 20
19.6075959675
 30
0.0
  0
LINE
  5
F1
330
1F
100
AcDbEntity
  8
0
  6
Continuous
 62
     7
370
    25
100
AcDbLine
 10
414.7265561296
 20
-56.9041987823
 30
0.0
 11
396.7503018577
 21
-46.5267280818
 31
0.0
  0
LINE
  5
F2
330
1F
100
AcDbEntity
  8
0
  6
Continuous
 62
     7
370
    25
100
AcDbLine
 10
356.747050899
 20
-23.4333428599
 30
0.0
 11
298.761044015
 21
10.0412663872
 31
0.0
  0
LINE
  5
F3
330
1F
100
AcDbEntity
  8
0
  6
Continuous
 62
     7
370
    25
100
AcDbLine
 10
258.7642947096
 20
-59.2426426033
 30
0.0
 11
374.7298068242
 21
-126.1881077728
 31
0.0
  0
LINE
  5
F4
330
1F
100
AcDbEntity
  8
0
  6
Continuous
 62
     7
370
    25
100
AcDbLine
 10
373.2015290364
 20
-60.1211452663
 30
0.0
 11
416.0410773023
 21
-35.3904004611
 31
0.0
  0
LINE
  5
F5
330
1F
100
AcDbEntity
  8
0
  6
Continuous
 62
     7
370
    25
100
AcDbLine
 10
396.0427026495
 20
-0.7484459659
 30
0.0
 11
353.2005843223
 21
-25.4806744359
 31
0.0
  0
LINE
  5
F6
330
1F
100
AcDbEntity
  8
0
  6
Continuous
 62
     7
370
    25
100
AcDbLine
 10
291.4195236118
 20
11.9149377845
 30
0.0
 11
291.4195236118
 21
29.6998066826
 31
0.0
  0
LINE
  5
F7
330
1F
100
AcDbEntity
  8
0
  6
Continuous
 62
     7
370
    25
100
AcDbLine
 10
277.4195236118
 20
29.6998066826
 30
0.0
 11
277.4195236118
 21
7.2487152275
 31
0.0
  0
SPLINE
  5
F8
330
1F
100
AcDbEntity
  8
0
  6
Continuous
 62
     7
370
    25
100
AcDbSpline
210
0.0
220
0.0
230
1.0
 70
     8
 71
     3
 72
    24
 73
    20
 74
     0
 42
0.00000001
 43
0.00000001
 40
0.0
 40
0.0
 40
0.0
 40
0.0
 40
0.065826840632424
 40
0.1316716103423868
 40
0.1973011232075269
 40
0.2629584292285339
 40
0.3325952850037822
 40
0.4022369750551621
 40
0.45225897291426
 40
0.5024454488226063
 40
0.5524280404363251
 40
0.5994006186866866
 40
0.6465577995143609
 40
0.6935115292663795
 40
0.7555337517637147
 40
0.8175845077622871
 40
0.8810803320760369
 40
0.944600742431123
 40
1.0
 40
1.0
 40
1.0
 40
1.0
 10
350.8875610433399
 20
-33.58117733811768
 30
0.0
 10
350.9047420413072
 20
-34.47119097658443
 30
0.0
 10
350.9391087167837
 20
-36.25146066411189
 30
0.0
 10
351.2130030717555
 20
-39.21423304117004
 30
0.0
 10
351.6544551507993
 20
-42.27537771597956
 30
0.0
 10
352.294684288013
 20
-45.4292902799458
 30
0.0
 10
353.1596355184544
 20
-48.58837184953406
 30
0.0
 10
354.1782024706897
 20
-51.3758350264161
 30
0.0
 10
355.2852693771459
 20
-53.70865513475923
 30
0.0
 10
356.414988175853
 20
-55.61684047170908
 30
0.0
 10
357.6750374589107
 20
-57.30047055898721
 30
0.0
 10
359.0652362365144
 20
-58.7252893198114
 30
0.0
 10
360.5558328718816
 20
-59.88820572047475
 30
0.0
 10
362.329748437965
 20
-60.89294043173281
 30
0.0
 10
364.4035845246993
 20
-61.59231087934212
 30
0.0
 10
366.7484932357582
 20
-61.88606739298289
 30
0.0
 10
369.0968748321069
 20
-61.68626274316449
 30
0.0
 10
371.3015024623077
 20
-61.11981794195712
 30
0.0
 10
372.581697528557
 20
-60.40907627567015
 30
0.0
 10
373.1780821085988
 20
-60.07797410121117
 30
0.0
  0
SPLINE
  5
F9
330
1F
100
AcDbEntity
  8
0
  6
Continuous
 62
     7
370
    25
100
AcDbSpline
210
0.0
220
0.0
230
1.0
 70
     8
 71
     3
 72
    13
 73
     9
 74
     0
 42
0.00000001
 43
0.00000001
 40
0.0
 40
0.0
 40
0.0
 40
0.0
 40
0.1656798920152017
 40
0.3862501700314738
 40
0.534153516754383
 40
0.6825962105670039
 40
0.8304078803358136
 40
1.0
 40
1.0
 40
1.0
 40
1.0
 10
353.2290931681582
 20
-25.52733190414966
 30
0.0
 10
352.9687769802215
 20
-25.68942069062628
 30
0.0
 10
352.3619008492106
 20
-26.06729890249188
 30
0.0
 10
351.7885919273215
 20
-27.12747786397803
 30
0.0
 10
351.3606914260665
 20
-28.45924767128276
 30
0.0
 10
351.1006559075512
 20
-29.84939045363728
 30
0.0
 10
350.9228436016795
 20
-31.52481032685824
 30
0.0
 10
350.8998478895827
 20
-32.86506528515708
 30
0.0
 10
350.8875610433399
 20
-33.58117733811768
 30
0.0
  0
LWPOLYLINE
  5
FA
330
1F
100
AcDbEntity
  8
0
  6
Continuous
 62
     7
370
    25
100
AcDbPolyline
 90
       98
 70
   128
 43
0.0
 10
307.0469406098
 20
-8.2725258716
 10
306.9876235782
 20
-6.1925873271
 10
306.8099212798
 20
-4.1898587545
 10
306.5145790598
 20
-2.2727402935
 10
306.102835686
 20
-0.4492730052
 10
305.5764181533
 20
1.272894855
 10
304.9375344397
 20
2.8865399166
 10
304.1888642455
 20
4.3848939913
 10
303.3335477538
 20
5.7616724615
 10
302.3751724592
 20
7.0111006398
 10
301.3177581206
 20
8.1279379903
 10
300.1657399013
 20
9.1075001088
 10
298.9239497661
 20
9.9456783716
 10
297.5975962144
 20
10.6389571676
 10
296.1922424338
 20
11.1844286447
 10
294.7137829665
 20
11.579804906
 10
293.1684189854
 20
11.8234276059
 10
291.562632284
 20
11.9142749062
 10
289.9031580899
 20
11.8519657618
 10
288.1969568144
 20
11.6367615189
 10
286.4511848587
 20
11.2695648189
 10
284.673164597
 20
10.7519158123
 10
282.8703536643
 20
10.0859856989
 10
281.0503136761
 20
9.2745676211
 10
279.2206785127
 20
8.3210649484
 10
277.3891222996
 20
7.2294770021
 10
275.5633272204
 20
6.0043822817
 10
273.7509512939
 20
4.65091926
 10
271.9595962547
 20
3.1747648313
 10
270.1967756683
 20
1.5821105004
 10
268.4698834169
 20
-0.1203635871
 10
266.7861626868
 20
-1.9255166631
 10
265.1526755879
 20
-3.8257772883
 10
263.5762735326
 20
-5.8131751093
 10
262.0635684991
 20
-7.8793742889
 10
260.6209052979
 20
-10.0157084698
 10
259.25433496
 20
-12.2132171239
 10
257.9695893561
 20
-14.4626831363
 10
256.7720571559
 20
-16.7546714647
 10
255.6667612256
 20
-19.0795687136
 10
254.6583375604
 20
-21.427623456
 10
253.7510158396
 20
-23.7889871342
 10
252.9486016859
 20
-26.1537553684
 10
252.254460703
 20
-28.5120094988
 10
251.6715043595
 20
-30.853858188
 10
251.2021777768
 20
-33.1694789088
 10
250.8484494738
 20
-35.4491591431
 10
250.6118031099
 20
-37.6833371197
 10
250.4932312622
 20
-39.8626419198
 10
250.4932312622
 20
-41.9779327818
 10
250.6118031099
 20
-44.0203374406
 10
250.8484494738
 20
-45.9812893412
 10
251.2021777768
 20
-47.85256357
 10
251.6715043595
 20
-49.6263113526
 10
252.254460703
 20
-51.2950929742
 10
252.9486016859
 20
-52.8519089848
 10
253.7510158396
 20
-54.2902295571
 10
254.6583375604
 20
-55.6040218747
 10
255.6667612256
 20
-56.7877754361
 10
256.7720571559
 20
-57.8365251674
 10
257.9695893561
 20
-58.7458722479
 10
259.25433496
 20
-59.5120025597
 10
260.6209052979
 20
-60.1317026862
 10
262.0635684991
 20
-60.6023733897
 10
263.5762735326
 20
-60.9220405136
 10
265.1526755879
 20
-61.0893632629
 10
266.7861626868
 20
-61.103639828
 10
268.4698834169
 20
-60.9648103279
 10
270.1967756683
 20
-60.6734570617
 10
271.9595962547
 20
-60.2308020664
 10
273.7509512939
 20
-59.6387019908
 10
275.5633272204
 20
-58.8996403084
 10
277.3891222996
 20
-58.0167169008
 10
279.2206785127
 20
-56.9936350555
 10
281.0503136761
 20
-55.8346859333
 10
282.8703536643
 20
-54.5447305697
 10
284.673164597
 20
-53.1291794857
 10
286.4511848587
 20
-51.5939699946
 10
288.1969568144
 20
-49.9455412984
 10
289.9031580899
 20
-48.1908074799
 10
291.562632284
 20
-46.3371285026
 10
293.1684189854
 20
-44.3922793404
 10
294.7137829665
 20
-42.3644173665
 10
296.1922424338
 20
-40.2620481388
 10
297.5975962144
 20
-38.0939897243
 10
298.9239497661
 20
-35.8693357137
 10
300.1657399013
 20
-33.5974170788
 10
301.3177581206
 20
-31.2877630361
 10
302.3751724592
 20
-28.9500610772
 10
303.3335477538
 20
-26.5941163365
 10
304.1888642455
 20
-24.2298104651
 10
304.9375344397
 20
-21.8670601834
 10
305.5764181533
 20
-19.5157756872
 10
306.102835686
 20
-17.1858190809
 10
306.5145790598
 20
-14.8869630121
 10
306.8099212798
 20
-12.6288496821
 10
306.9876235782
 20
-10.420950403
 10
307.0469406098
 20
-8.2725258716
  0
LWPOLYLINE
  5
FB
330
1F
100
AcDbEntity
  8
0
  6
Continuous
 62
     7
370
    25
100
AcDbPolyline
 90
       14
 70
   128
 43
0.0
 10
423.0124527244
 20
-75.2179910411
 10
422.9531356928
 20
-73.1380524966
 10
422.7754333944
 20
-71.135323924
 10
422.4800911744
 20
-69.218205463
 10
422.0683478006
 20
-67.3947381746
 10
421.5419302679
 20
-65.6725703144
 10
420.9030465543
 20
-64.0589252529
 10
420.1543763601
 20
-62.5605711781
 10
419.2990598684
 20
-61.1837927079
 10
418.3406845738
 20
-59.9343645296
 10
417.2832702352
 20
-58.8175271792
 10
416.1312520159
 20
-57.8379650606
 10
414.8894618807
 20
-56.9997867979
 10
414.7265561296
 20
-56.9041987823
  0
LWPOLYLINE
  5
FC
330
1F
100
AcDbEntity
  8
0
  6
Continuous
 62
     7
370
    25
100
AcDbPolyline
 90
       38
 70
   128
 43
0.0
 10
374.7298068242
 20
-126.1881077728
 10
375.2198470745
 20
-126.4574677292
 10
376.5864174125
 20
-127.0771678557
 10
378.0290806137
 20
-127.5478385591
 10
379.5417856472
 20
-127.867505683
 10
381.1181877025
 20
-128.0348284324
 10
382.7516748014
 20
-128.0491049974
 10
384.4353955315
 20
-127.9102754973
 10
386.1622877829
 20
-127.6189222312
 10
387.9251083693
 20
-127.1762672359
 10
389.7164634085
 20
-126.5841671603
 10
391.528839335
 20
-125.8451054779
 10
393.3546344142
 20
-124.9621820702
 10
395.1861906272
 20
-123.9391002249
 10
397.0158257907
 20
-122.7801511028
 10
398.8358657789
 20
-121.4901957392
 10
400.6386767116
 20
-120.0746446552
 10
402.4166969733
 20
-118.539435164
 10
404.162468929
 20
-116.8910064678
 10
405.8686702045
 20
-115.1362726494
 10
407.5281443986
 20
-113.2825936721
 10
409.1339311
 20
-111.3377445099
 10
410.6792950811
 20
-109.309882536
 10
412.1577545484
 20
-107.2075133082
 10
413.563108329
 20
-105.0394548938
 10
414.8894618807
 20
-102.8148008831
 10
416.1312520159
 20
-100.5428822483
 10
417.2832702352
 20
-98.2332282055
 10
418.3406845738
 20
-95.8955262466
 10
419.2990598684
 20
-93.539581506
 10
420.1543763601
 20
-91.1752756346
 10
420.9030465543
 20
-88.8125253529
 10
421.5419302679
 20
-86.4612408567
 10
422.0683478006
 20
-84.1312842503
 10
422.4800911744
 20
-81.8324281816
 10
422.7754333944
 20
-79.5743148516
 10
422.9531356928
 20
-77.3664155725
 10
423.0124527244
 20
-75.2179910411
  0
LWPOLYLINE
  5
FD
330
1F
100
AcDbEntity
  8
0
  6
Continuous
 62
     7
370
    25
100
AcDbPolyline
 90
       87
 70
   128
 43
0.0
 10
301.0365329697
 20
-11.7422603469
 10
300.9771126199
 20
-9.8990478995
 10
300.7991686037
 20
-8.1342750637
 10
300.5036503294
 20
-6.457357666
 10
300.092134515
 20
-4.8772427863
 10
299.5668167753
 20
-3.4023610213
 10
298.9304999078
 20
-2.0405815032
 10
298.1865789382
 20
-0.799169915
 10
297.3390230068
 20
0.3152502754
 10
296.3923541913
 20
1.2967331541
 10
295.3516233793
 20
2.1400420852
 10
294.2223833201
 20
2.8406776508
 10
293.0106589978
 20
3.3949016568
 10
291.7229154862
 20
3.7997570786
 10
290.3660234539
 20
4.0530838372
 10
288.9472225071
 20
4.1535303247
 10
287.4740825627
 20
4.1005606158
 10
285.9544634597
 20
3.8944573266
 10
284.3964730235
 20
3.5363201075
 10
282.8084238071
 20
3.0280597754
 10
281.1987887403
 20
2.3723881192
 10
279.5761559226
 20
1.5728034307
 10
277.9491828021
 20
0.6335718404
 10
276.3265499843
 20
-0.440295445
 10
274.7169149175
 20
-1.6430688788
 10
273.1288657012
 20
-2.9683311443
 10
271.5708752649
 20
-4.4090113939
 10
270.0512561619
 20
-5.9574229752
 10
268.5781162175
 20
-7.6053044424
 10
267.1593152707
 20
-9.3438636349
 10
265.8024232384
 20
-11.1638245872
 10
264.5146797268
 20
-13.0554770202
 10
263.3029554046
 20
-15.0087281496
 10
262.1737153453
 20
-17.0131565355
 10
261.1329845333
 20
-19.0580676853
 10
260.1863157178
 20
-21.1325511132
 10
259.3387597864
 20
-23.2255385526
 10
258.5948388169
 20
-25.3258630098
 10
257.9585219493
 20
-27.4223183452
 10
257.4332042096
 20
-29.5037190624
 10
257.0216883952
 20
-31.558959988
 10
256.7261701209
 20
-33.5770755225
 10
256.5482261048
 20
-35.5472981463
 10
256.4888057549
 20
-37.4591158693
 10
256.5482261048
 20
-39.3023283166
 10
256.7261701209
 20
-41.0671011525
 10
257.0216883952
 20
-42.7440185502
 10
257.4332042096
 20
-44.3241334298
 10
257.9585219493
 20
-45.7990151949
 10
258.5948388169
 20
-47.160794713
 10
259.3387597864
 20
-48.4022063012
 10
260.1863157178
 20
-49.5166264916
 10
261.1329845333
 20
-50.4981093702
 10
262.1737153453
 20
-51.3414183014
 10
263.3029554046
 20
-52.0420538669
 10
264.5146797268
 20
-52.596277873
 10
265.8024232384
 20
-53.0011332947
 10
267.1593152707
 20
-53.2544600533
 10
268.5781162175
 20
-53.3549065409
 10
270.0512561619
 20
-53.3019368319
 10
271.5708752649
 20
-53.0958335427
 10
273.1288657012
 20
-52.7376963236
 10
274.7169149175
 20
-52.2294359915
 10
276.3265499843
 20
-51.5737643353
 10
277.9491828021
 20
-50.7741796468
 10
279.5761559226
 20
-49.8349480565
 10
281.1987887403
 20
-48.7610807711
 10
282.8084238071
 20
-47.5583073374
 10
284.3964730235
 20
-46.2330450719
 10
285.9544634597
 20
-44.7923648222
 10
287.4740825627
 20
-43.2439532409
 10
288.9472225071
 20
-41.5960717737
 10
290.3660234539
 20
-39.8575125812
 10
291.7229154862
 20
-38.0375516289
 10
293.0106589978
 20
-36.145899196
 10
294.2223833201
 20
-34.1926480666
 10
295.3516233793
 20
-32.1882196806
 10
296.3923541913
 20
-30.1433085308
 10
297.3390230068
 20
-28.0688251029
 10
298.1865789382
 20
-25.9758376635
 10
298.9304999078
 20
-23.8755132063
 10
299.5668167753
 20
-21.779057871
 10
300.092134515
 20
-19.6976571538
 10
300.5036503294
 20
-17.6424162281
 10
300.7991686037
 20
-15.6243006936
 10
300.9771126199
 20
-13.6540780698
 10
301.0365329697
 20
-11.7422603469
  0
LWPOLYLINE
  5
FE
330
1F
100
AcDbEntity
  8
0
  6
Continuous
 62
     7
370
    25
100
AcDbPolyline
 90
       63
 70
   128
 43
0.0
 10
417.5677305092
 20
-24.7231493248
 10
417.5085951488
 20
-23.3424997684
 10
417.3317958764
 20
-21.907741311
 10
417.0391468918
 20
-20.4335965157
 10
416.6336511695
 20
-18.9351921032
 10
416.1194696444
 20
-17.4279037302
 10
415.5018785148
 20
-15.9271982153
 10
414.7872151014
 20
-14.4484748278
 10
413.9828128179
 20
-13.0069072706
 10
413.0969259202
 20
-11.6172879777
 10
412.1386448068
 20
-10.2938763234
 10
411.1178027386
 20
-9.0502523022
 10
410.0448749366
 20
-7.8991771795
 10
408.930871092
 20
-6.8524625436
 10
407.7872223917
 20
-5.9208491031
 10
406.6256642191
 20
-5.1138964727
 10
405.4581157327
 20
-4.4398850782
 10
404.2965575601
 20
-3.9057311888
 10
403.1529088598
 20
-3.516915946
 10
402.0389050152
 20
-3.2774291205
 10
400.9659772132
 20
-3.1897281712
 10
399.945135145
 20
-3.2547130284
 10
398.9868540315
 20
-3.4717168597
 10
398.1009671339
 20
-3.838512912
 10
397.2965648504
 20
-4.3513373614
 10
396.5819014369
 20
-5.0049279353
 10
395.9643103073
 20
-5.7925779098
 10
395.4501287823
 20
-6.7062049303
 10
395.04463306
 20
-7.7364339474
 10
394.7519840754
 20
-8.872693417
 10
394.575184803
 20
-10.1033237796
 10
394.5160494425
 20
-11.4156971021
 10
394.575184803
 20
-12.7963466585
 10
394.7519840754
 20
-14.231105116
 10
395.04463306
 20
-15.7052499113
 10
395.4501287823
 20
-17.2036543238
 10
395.9643103073
 20
-18.7109426967
 10
396.5819014369
 20
-20.2116482117
 10
397.2965648504
 20
-21.6903715992
 10
398.1009671339
 20
-23.1319391564
 10
398.9868540315
 20
-24.5215584493
 10
399.945135145
 20
-25.8449701036
 10
400.9659772132
 20
-27.0885941248
 10
402.0389050152
 20
-28.2396692475
 10
403.1529088598
 20
-29.2863838834
 10
404.2965575601
 20
-30.2179973239
 10
405.4581157327
 20
-31.0249499543
 10
406.6256642191
 20
-31.6989613487
 10
407.7872223917
 20
-32.2331152382
 10
408.930871092
 20
-32.6219304809
 10
410.0448749366
 20
-32.8614173064
 10
411.1178027386
 20
-32.9491182558
 10
412.1386448068
 20
-32.8841333985
 10
413.0969259202
 20
-32.6671295673
 10
413.9828128179
 20
-32.300333515
 10
414.7872151014
 20
-31.7875090655
 10
415.5018785148
 20
-31.1339184917
 10
416.1194696444
 20
-30.3462685172
 10
416.6336511695
 20
-29.4326414966
 10
417.0391468918
 20
-28.4024124796
 10
417.3317958764
 20
-27.26615301
 10
417.5085951488
 20
-26.0355226474
 10
417.5677305092
 20
-24.7231493248
  0
LWPOLYLINE
  5
FF
330
1F
100
AcDbEntity
  8
0
  6
Continuous
 62
     7
370
    25
100
AcDbPolyline
 90
       70
 70
   128
 43
0.0
 10
420.1840255996
 20
-26.2335043317
 10
420.1254325048
 20
-24.7146387321
 10
419.9501387411
 20
-23.1407087839
 10
419.659596848
 20
-21.5247565662
 10
419.256214347
 20
-19.8801723683
 10
418.7433337926
 20
-18.2205837325
 10
418.1252050745
 20
-16.5597425331
 10
417.4069502021
 20
-14.9114110233
 10
416.5945208614
 20
-13.289247797
 10
415.6946490977
 20
-11.7066946097
 10
414.7147915319
 20
-10.1768649954
 10
413.6630675725
 20
-8.7124356043
 10
412.5481921352
 20
-7.3255411593
 10
411.3794034292
 20
-6.0276739046
 10
410.1663864058
 20
-4.8295883771
 10
408.9191925059
 20
-3.7412122908
 10
407.6481563712
 20
-2.7715642727
 10
406.3638102072
 20
-1.9286791316
 10
405.0767965108
 20
-1.2195412793
 10
403.7977798828
 20
-0.6500268554
 10
402.5373586578
 20
-0.2248550357
 10
401.3059770829
 20
0.0524510722
 10
400.1138387739
 20
0.1795936225
 10
398.970822164
 20
0.155519072
 10
397.886398649
 20
-0.01957309
 10
396.8695541036
 20
-0.3442319946
 10
395.9287144219
 20
-0.815767416
 10
395.0716756979
 20
-1.4302720632
 10
394.3055396243
 20
-2.1826539571
 10
393.6366546459
 20
-3.0666786244
 10
393.0705633544
 20
-4.0750207583
 10
392.6119565604
 20
-5.1993249182
 10
392.2646344242
 20
-6.4302747659
 10
392.0314749665
 20
-7.7576702633
 10
391.91441022
 20
-9.1705121931
 10
391.91441022
 20
-10.6570933022
 10
392.0314749665
 20
-12.2050953115
 10
392.2646344242
 20
-13.8016909886
 10
392.6119565604
 20
-15.4336504389
 10
393.0705633544
 20
-17.0874507326
 10
393.6366546459
 20
-18.7493879596
 10
394.3055396243
 20
-20.4056907845
 10
395.0716756979
 20
-22.0426345605
 10
395.9287144219
 20
-23.646655056
 10
396.8695541036
 20
-25.2044608519
 10
397.886398649
 20
-26.703143479
 10
398.970822164
 20
-28.1302843808
 10
400.1138387739
 20
-29.4740578184
 10
401.3059770829
 20
-30.723328862
 10
402.5373586578
 20
-31.8677456582
 10
403.7977798828
 20
-32.897825209
 10
405.0767965108
 20
-33.8050319508
 10
406.3638102072
 20
-34.581848483
 10
407.6481563712
 20
-35.2218378589
 10
408.9191925059
 20
-35.7196969252
 10
410.1663864058
 20
-36.0713002649
 10
411.3794034292
 20
-36.2737343817
 10
412.5481921352
 20
-36.3253218431
 10
413.6630675725
 20
-36.2256351789
 10
414.7147915319
 20
-35.9755004244
 10
415.6946490977
 20
-35.5769902748
 10
416.5945208614
 20
-35.0334069107
 10
417.4069502021
 20
-34.3492546351
 10
418.1252050745
 20
-33.5302025493
 10
418.7433337926
 20
-32.5830375767
 10
419.256214347
 20
-31.5156082246
 10
419.659596848
 20
-30.3367595488
 10
419.9501387411
 20
-29.0562598607
 10
420.1254325048
 20
-27.684719784
 10
420.1840255996
 20
-26.2335043317
  0
LWPOLYLINE
  5
100
330
1F
100
AcDbEntity
  8
0
  6
Continuous
 62
     7
370
    25
100
AcDbPolyline
 90
       21
 70
   128
 43
0.0
 10
291.4195236118
 20
29.6998066826
 10
291.333341996
 20
30.3319605435
 10
291.0769192259
 20
30.9485486783
 10
290.6565692811
 20
31.5343886409
 10
290.0826425724
 20
32.075055107
 10
289.3692710801
 20
32.557235074
 10
288.5340203779
 20
32.9690556706
 10
287.59745711
 20
33.3003765072
 10
286.5826425724
 20
33.5430393651
 10
285.5145648671
 20
33.6910690794
 10
284.4195236118
 20
33.7408206672
 10
283.3244823565
 20
33.6910690794
 10
282.2564046512
 20
33.5430393651
 10
281.2415901136
 20
33.3003765072
 10
280.3050268458
 20
32.9690556706
 10
279.4697761435
 20
32.557235074
 10
278.7564046512
 20
32.075055107
 10
278.1824779425
 20
31.5343886409
 10
277.7621279977
 20
30.9485486783
 10
277.5057052276
 20
30.3319605435
 10
277.4195236118
 20
29.6998066826
  0
ENDSEC
  0
SECTION
  2
OBJECTS
  0
DICTIONARY
  5
C
330
0
100
AcDbDictionary
281
     1
  3
ACAD_GROUP
350
D
  3
ACAD_LAYOUT
350
1A
  3
ACAD_MLINESTYLE
350
17
  3
ACAD_PLOTSETTINGS
350
19
  3
ACAD_PLOTSTYLENAME
350
E
  3
ACAD_SCALELIST
350
47
  3
DWGPROPS
350
101
  0
DICTIONARY
  5
D
102
{ACAD_REACTORS
330
C
102
}
330
C
100
AcDbDictionary
281
     1
  0
DICTIONARY
  5
1A
102
{ACAD_REACTORS
330
C
102
}
330
C
100
AcDbDictionary
281
     1
  3
Layout1
350
1E
  3
Layout2
350
26
  3
Model
350
22
  0
DICTIONARY
  5
17
102
{ACAD_REACTORS
330
C
102
}
330
C
100
AcDbDictionary
281
     1
  3
Standard
350
18
  0
DICTIONARY
  5
19
102
{ACAD_REACTORS
330
C
102
}
330
C
100
AcDbDictionary
281
     1
  0
ACDBDICTIONARYWDFLT
  5
E
102
{ACAD_REACTORS
330
C
102
}
330
C
100
AcDbDictionary
281
     1
  3
Normal
350
F
100
AcDbDictionaryWithDefault
340
F
  0
DICTIONARY
  5
47
102
{ACAD_REACTORS
330
C
102
}
330
C
100
AcDbDictionary
281
     1
  3
A0
350
48
  3
A1
350
49
  3
A2
350
4A
  3
A3
350
4B
  3
A4
350
4C
  3
A5
350
4D
  3
A6
350
4E
  3
A7
350
4F
  3
A8
350
50
  3
A9
350
51
  3
B0
350
52
  3
B1
350
53
  3
B2
350
54
  3
B3
350
55
  3
B4
350
56
  3
B5
350
57
  3
B6
350
58
  3
B7
350
59
  3
B8
350
5A
  3
B9
350
5B
  3
C0
350
5C
  3
C1
350
5D
  3
C2
350
5E
  3
C3
350
5F
  3
C4
350
60
  3
C5
350
61
  3
C6
350
62
  3
C7
350
63
  3
C8
350
64
  3
C9
350
65
  3
D0
350
66
  3
D1
350
67
  3
D2
350
68
  0
XRECORD
  5
101
102
{ACAD_REACTORS
330
C
102
}
330
C
100
AcDbXrecord
280
     1
  1
DWGPROPS COOKIE
  2

  3

  4

  6

  7

  8
b.kav
  9

300
=
301
=
302
=
303
=
304
=
305
=
306
=
307
=
308
=
309
=
 40
0.0
 41
2459741.481076574
 42
2459741.481076759
  1

 90
        0
  0
LAYOUT
  5
1E
102
{ACAD_REACTORS
330
1A
102
}
330
1A
100
AcDbPlotSettings
  1

  2
none_device
  4

  6

 40
0.0
 41
0.0
 42
0.0
 43
0.0
 44
0.0
 45
0.0
 46
0.0
 47
0.0
 48
0.0
 49
0.0
140
0.0
141
0.0
142
1.0
143
1.0
 70
   688
 72
     1
 73
     0
 74
     5
  7

 75
    16
147
1.0
148
0.0
149
0.0
100
AcDbLayout
  1
Layout1
 70
     1
 71
     1
 10
0.0
 20
0.0
 11
420.0
 21
297.0
 12
0.0
 22
0.0
 32
0.0
 14
1.0000000000E+20
 24
1.0000000000E+20
 34
1.0000000000E+20
 15
-1.0000000000E+20
 25
-1.0000000000E+20
 35
-1.0000000000E+20
146
0.0
 13
0.0
 23
0.0
 33
0.0
 16
1.0
 26
0.0
 36
0.0
 17
0.0
 27
1.0
 37
0.0
 76
     0
330
1B
  0
LAYOUT
  5
26
102
{ACAD_REACTORS
330
1A
102
}
330
1A
100
AcDbPlotSettings
  1

  2
none_device
  4

  6

 40
0.0
 41
0.0
 42
0.0
 43
0.0
 44
0.0
 45
0.0
 46
0.0
 47
0.0
 48
0.0
 49
0.0
140
0.0
141
0.0
142
1.0
143
1.0
 70
   688
 72
     1
 73
     0
 74
     5
  7

 75
    16
147
1.0
148
0.0
149
0.0
100
AcDbLayout
  1
Layout2
 70
     1
 71
     2
 10
0.0
 20
0.0
 11
0.0
 21
0.0
 12
0.0
 22
0.0
 32
0.0
 14
0.0
 24
0.0
 34
0.0
 15
0.0
 25
0.0
 35
0.0
146
0.0
 13
0.0
 23
0.0
 33
0.0
 16
1.0
 26
0.0
 36
0.0
 17
0.0
 27
1.0
 37
0.0
 76
     0
330
23
  0
LAYOUT
  5
22
102
{ACAD_REACTORS
330
1A
102
}
330
1A
100
AcDbPlotSettings
  1

  2
none_device
  4
Letter_(8.50_x_11.00_Inches)
  6

 40
6.35
 41
6.35
 42
6.35000508
 43
6.35000508
 44
215.9
 45
279.4
 46
0.0
 47
0.0
 48
0.0
 49
0.0
140
0.0
141
0.0
142
1.0
143
1.0
 70
  1712
 72
     1
 73
     0
 74
     0
  7

 75
     0
147
1.0
148
0.0
149
0.0
100
AcDbLayout
  1
Model
 70
     1
 71
     0
 10
0.0
 20
0.0
 11
279.4
 21
215.9
 12
0.0
 22
0.0
 32
0.0
 14
0.0
 24
0.0
 34
0.0
 15
279.4
 25
215.9
 35
0.0
146
0.0
 13
0.0
 23
0.0
 33
0.0
 16
1.0
 26
0.0
 36
0.0
 17
0.0
 27
1.0
 37
0.0
 76
     0
330
1F
331
29
  0
MLINESTYLE
  5
18
102
{ACAD_REACTORS
330
17
102
}
330
17
100
AcDbMlineStyle
  2
Standard
 70
     0
  3

 62
   256
 51
90.0
 52
90.0
 71
     2
 49
0.5
 62
   256
  6
BYLAYER
 49
-0.5
 62
   256
  6
BYLAYER
  0
ACDBPLACEHOLDER
  5
F
102
{ACAD_REACTORS
330
E
102
}
330
E
  0
SCALE
  5
48
102
{ACAD_REACTORS
330
47
102
}
330
47
100
AcDbScale
 70
     0
300
1:1
140
1.0
141
1.0
290
     1
  0
SCALE
  5
49
102
{ACAD_REACTORS
330
47
102
}
330
47
100
AcDbScale
 70
     0
300
1:2
140
1.0
141
2.0
290
     0
  0
SCALE
  5
4A
102
{ACAD_REACTORS
330
47
102
}
330
47
100
AcDbScale
 70
     0
300
1:4
140
1.0
141
4.0
290
     0
  0
SCALE
  5
4B
102
{ACAD_REACTORS
330
47
102
}
330
47
100
AcDbScale
 70
     0
300
1:5
140
1.0
141
5.0
290
     0
  0
SCALE
  5
4C
102
{ACAD_REACTORS
330
47
102
}
330
47
100
AcDbScale
 70
     0
300
1:8
140
1.0
141
8.0
290
     0
  0
SCALE
  5
4D
102
{ACAD_REACTORS
330
47
102
}
330
47
100
AcDbScale
 70
     0
300
1:10
140
1.0
141
10.0
290
     0
  0
SCALE
  5
4E
102
{ACAD_REACTORS
330
47
102
}
330
47
100
AcDbScale
 70
     0
300
1:16
140
1.0
141
16.0
290
     0
  0
SCALE
  5
4F
102
{ACAD_REACTORS
330
47
102
}
330
47
100
AcDbScale
 70
     0
300
1:20
140
1.0
141
20.0
290
     0
  0
SCALE
  5
50
102
{ACAD_REACTORS
330
47
102
}
330
47
100
AcDbScale
 70
     0
300
1:30
140
1.0
141
30.0
290
     0
  0
SCALE
  5
51
102
{ACAD_REACTORS
330
47
102
}
330
47
100
AcDbScale
 70
     0
300
1:40
140
1.0
141
40.0
290
     0
  0
SCALE
  5
52
102
{ACAD_REACTORS
330
47
102
}
330
47
100
AcDbScale
 70
     0
300
1:50
140
1.0
141
50.0
290
     0
  0
SCALE
  5
53
102
{ACAD_REACTORS
330
47
102
}
330
47
100
AcDbScale
 70
     0
300
1:100
140
1.0
141
100.0
290
     0
  0
SCALE
  5
54
102
{ACAD_REACTORS
330
47
102
}
330
47
100
AcDbScale
 70
     0
300
2:1
140
2.0
141
1.0
290
     0
  0
SCALE
  5
55
102
{ACAD_REACTORS
330
47
102
}
330
47
100
AcDbScale
 70
     0
300
4:1
140
4.0
141
1.0
290
     0
  0
SCALE
  5
56
102
{ACAD_REACTORS
330
47
102
}
330
47
100
AcDbScale
 70
     0
300
8:1
140
8.0
141
1.0
290
     0
  0
SCALE
  5
57
102
{ACAD_REACTORS
330
47
102
}
330
47
100
AcDbScale
 70
     0
300
10:1
140
10.0
141
1.0
290
     0
  0
SCALE
  5
58
102
{ACAD_REACTORS
330
47
102
}
330
47
100
AcDbScale
 70
     0
300
100:1
140
100.0
141
1.0
290
     0
  0
SCALE
  5
59
102
{ACAD_REACTORS
330
47
102
}
330
47
100
AcDbScale
 70
     0
300
1/128" = 1'-0"
140
0.0078125
141
12.0
290
     0
  0
SCALE
  5
5A
102
{ACAD_REACTORS
330
47
102
}
330
47
100
AcDbScale
 70
     0
300
1/64" = 1'-0"
140
0.015625
141
12.0
290
     0
  0
SCALE
  5
5B
102
{ACAD_REACTORS
330
47
102
}
330
47
100
AcDbScale
 70
     0
300
1/32" = 1'-0"
140
0.03125
141
12.0
290
     0
  0
SCALE
  5
5C
102
{ACAD_REACTORS
330
47
102
}
330
47
100
AcDbScale
 70
     0
300
1/16" = 1'-0"
140
0.0625
141
12.0
290
     0
  0
SCALE
  5
5D
102
{ACAD_REACTORS
330
47
102
}
330
47
100
AcDbScale
 70
     0
300
3/32" = 1'-0"
140
0.09375
141
12.0
290
     0
  0
SCALE
  5
5E
102
{ACAD_REACTORS
330
47
102
}
330
47
100
AcDbScale
 70
     0
300
1/8" = 1'-0"
140
0.125
141
12.0
290
     0
  0
SCALE
  5
5F
102
{ACAD_REACTORS
330
47
102
}
330
47
100
AcDbScale
 70
     0
300
3/16" = 1'-0"
140
0.1875
141
12.0
290
     0
  0
SCALE
  5
60
102
{ACAD_REACTORS
330
47
102
}
330
47
100
AcDbScale
 70
     0
300
1/4" = 1'-0"
140
0.25
141
12.0
290
     0
  0
SCALE
  5
61
102
{ACAD_REACTORS
330
47
102
}
330
47
100
AcDbScale
 70
     0
300
3/8" = 1'-0"
140
0.375
141
12.0
290
     0
  0
SCALE
  5
62
102
{ACAD_REACTORS
330
47
102
}
330
47
100
AcDbScale
 70
     0
300
1/2" = 1'-0"
140
0.5
141
12.0
290
     0
  0
SCALE
  5
63
102
{ACAD_REACTORS
330
47
102
}
330
47
100
AcDbScale
 70
     0
300
3/4" = 1'-0"
140
0.75
141
12.0
290
     0
  0
SCALE
  5
64
102
{ACAD_REACTORS
330
47
102
}
330
47
100
AcDbScale
 70
     0
300
1" = 1'-0"
140
1.0
141
12.0
290
     0
  0
SCALE
  5
65
102
{ACAD_REACTORS
330
47
102
}
330
47
100
AcDbScale
 70
     0
300
1-1/2" = 1'-0"
140
1.5
141
12.0
290
     0
  0
SCALE
  5
66
102
{ACAD_REACTORS
330
47
102
}
330
47
100
AcDbScale
 70
     0
300
3" = 1'-0"
140
3.0
141
12.0
290
     0
  0
SCALE
  5
67
102
{ACAD_REACTORS
330
47
102
}
330
47
100
AcDbScale
 70
     0
300
6" = 1'-0"
140
6.0
141
12.0
290
     0
  0
SCALE
  5
68
102
{ACAD_REACTORS
330
47
102
}
330
47
100
AcDbScale
 70
     0
300
1'-0" = 1'-0"
140
12.0
141
12.0
290
     0
  0
ENDSEC
  0
EOF
